  0
SECTION
  2
HEADER
  9
$ACADVER
  1
AC1027
  9
$ACADMAINTVER
 70
   105
  9
$DWGCODEPAGE
  3
ANSI_1252
  9
$REQUIREDVERSIONS
160
                 0
  9
$INSBASE
 10
0.0
 20
0.0
 30
0.0
  9
$EXTMIN
 10
11.46058226493466
 20
17.06747679854624
 30
0.0
  9
$EXTMAX
 10
288.5566578106798
 20
189.8947160180889
 30
0.0
  9
$LIMMIN
 10
0.0
 20
0.0
  9
$LIMMAX
 10
12.0
 20
9.0
  9
$ORTHOMODE
 70
     0
  9
$REGENMODE
 70
     1
  9
$FILLMODE
 70
     1
  9
$QTEXTMODE
 70
     0
  9
$MIRRTEXT
 70
     1
  9
$LTSCALE
 40
1.0
  9
$ATTMODE
 70
     1
  9
$TEXTSIZE
 40
0.2
  9
$TRACEWID
 40
0.05
  9
$TEXTSTYLE
  7
Standard
  9
$CLAYER
  8
0
  9
$CELTYPE
  6
ByLayer
  9
$CECOLOR
 62
   256
  9
$CELTSCALE
 40
1.0
  9
$DISPSILH
 70
     0
  9
$DIMSCALE
 40
1.0
  9
$DIMASZ
 40
10.0
  9
$DIMEXO
 40
2.5
  9
$DIMDLI
 40
20.0
  9
$DIMRND
 40
0.0
  9
$DIMDLE
 40
0.0
  9
$DIMEXE
 40
5.0
  9
$DIMTP
 40
0.0
  9
$DIMTM
 40
0.0
  9
$DIMTXT
 40
10.0
  9
$DIMCEN
 40
0.09
  9
$DIMTSZ
 40
0.0
  9
$DIMTOL
 70
     0
  9
$DIMLIM
 70
     0
  9
$DIMTIH
 70
     1
  9
$DIMTOH
 70
     1
  9
$DIMSE1
 70
     0
  9
$DIMSE2
 70
     0
  9
$DIMTAD
 70
     0
  9
$DIMZIN
 70
     8
  9
$DIMBLK
  1

  9
$DIMASO
 70
     1
  9
$DIMSHO
 70
     1
  9
$DIMPOST
  1

  9
$DIMAPOST
  1

  9
$DIMALT
 70
     0
  9
$DIMALTD
 70
     2
  9
$DIMALTF
 40
25.4
  9
$DIMLFAC
 40
1.0
  9
$DIMTOFL
 70
     0
  9
$DIMTVP
 40
0.0
  9
$DIMTIX
 70
     0
  9
$DIMSOXD
 70
     0
  9
$DIMSAH
 70
     0
  9
$DIMBLK1
  1

  9
$DIMBLK2
  1

  9
$DIMSTYLE
  2
Standard
  9
$DIMCLRD
 70
     0
  9
$DIMCLRE
 70
     0
  9
$DIMCLRT
 70
     0
  9
$DIMTFAC
 40
1.0
  9
$DIMGAP
 40
2.5
  9
$DIMJUST
 70
     0
  9
$DIMSD1
 70
     0
  9
$DIMSD2
 70
     0
  9
$DIMTOLJ
 70
     1
  9
$DIMTZIN
 70
     0
  9
$DIMALTZ
 70
     0
  9
$DIMALTTZ
 70
     0
  9
$DIMUPT
 70
     0
  9
$DIMDEC
 70
     4
  9
$DIMTDEC
 70
     4
  9
$DIMALTU
 70
     2
  9
$DIMALTTD
 70
     2
  9
$DIMTXSTY
  7
Standard
  9
$DIMAUNIT
 70
     0
  9
$DIMADEC
 70
     0
  9
$DIMALTRND
 40
0.0
  9
$DIMAZIN
 70
     2
  9
$DIMDSEP
 70
    46
  9
$DIMATFIT
 70
     3
  9
$DIMFRAC
 70
     0
  9
$DIMLDRBLK
  1

  9
$DIMLUNIT
 70
     2
  9
$DIMLWD
 70
    -2
  9
$DIMLWE
 70
    -2
  9
$DIMTMOVE
 70
     0
  9
$DIMFXL
 40
1.0
  9
$DIMFXLON
 70
     0
  9
$DIMJOGANG
 40
0.7853981633974483
  9
$DIMTFILL
 70
     0
  9
$DIMTFILLCLR
 70
     0
  9
$DIMARCSYM
 70
     0
  9
$DIMLTYPE
  6

  9
$DIMLTEX1
  6

  9
$DIMLTEX2
  6

  9
$DIMTXTDIRECTION
 70
     0
  9
$LUNITS
 70
     2
  9
$LUPREC
 70
     4
  9
$SKETCHINC
 40
0.1
  9
$FILLETRAD
 40
0.5
  9
$AUNITS
 70
     0
  9
$AUPREC
 70
     0
  9
$MENU
  1
.
  9
$ELEVATION
 40
0.0
  9
$PELEVATION
 40
0.0
  9
$THICKNESS
 40
0.0
  9
$LIMCHECK
 70
     0
  9
$CHAMFERA
 40
0.0
  9
$CHAMFERB
 40
0.0
  9
$CHAMFERC
 40
0.0
  9
$CHAMFERD
 40
0.0
  9
$SKPOLY
 70
     0
  9
$TDCREATE
 40
2458695.603362083
  9
$TDUCREATE
 40
2458695.103362083
  9
$TDUPDATE
 40
2458695.603362303
  9
$TDUUPDATE
 40
2458695.103362303
  9
$TDINDWG
 40
0.0000000116
  9
$TDUSRTIMER
 40
0.0000000116
  9
$USRTIMER
 70
     1
  9
$ANGBASE
 50
0.0
  9
$ANGDIR
 70
     0
  9
$PDMODE
 70
     0
  9
$PDSIZE
 40
0.0
  9
$PLINEWID
 40
0.0
  9
$SPLFRAME
 70
     0
  9
$SPLINETYPE
 70
     6
  9
$SPLINESEGS
 70
     8
  9
$HANDSEED
  5
C84
  9
$SURFTAB1
 70
     6
  9
$SURFTAB2
 70
     6
  9
$SURFTYPE
 70
     6
  9
$SURFU
 70
     6
  9
$SURFV
 70
     6
  9
$UCSBASE
  2

  9
$UCSNAME
  2

  9
$UCSORG
 10
0.0
 20
0.0
 30
0.0
  9
$UCSXDIR
 10
1.0
 20
0.0
 30
0.0
  9
$UCSYDIR
 10
0.0
 20
1.0
 30
0.0
  9
$UCSORTHOREF
  2

  9
$UCSORTHOVIEW
 70
     0
  9
$UCSORGTOP
 10
0.0
 20
0.0
 30
0.0
  9
$UCSORGBOTTOM
 10
0.0
 20
0.0
 30
0.0
  9
$UCSORGLEFT
 10
0.0
 20
0.0
 30
0.0
  9
$UCSORGRIGHT
 10
0.0
 20
0.0
 30
0.0
  9
$UCSORGFRONT
 10
0.0
 20
0.0
 30
0.0
  9
$UCSORGBACK
 10
0.0
 20
0.0
 30
0.0
  9
$PUCSBASE
  2

  9
$PUCSNAME
  2

  9
$PUCSORG
 10
0.0
 20
0.0
 30
0.0
  9
$PUCSXDIR
 10
1.0
 20
0.0
 30
0.0
  9
$PUCSYDIR
 10
0.0
 20
1.0
 30
0.0
  9
$PUCSORTHOREF
  2

  9
$PUCSORTHOVIEW
 70
     0
  9
$PUCSORGTOP
 10
0.0
 20
0.0
 30
0.0
  9
$PUCSORGBOTTOM
 10
0.0
 20
0.0
 30
0.0
  9
$PUCSORGLEFT
 10
0.0
 20
0.0
 30
0.0
  9
$PUCSORGRIGHT
 10
0.0
 20
0.0
 30
0.0
  9
$PUCSORGFRONT
 10
0.0
 20
0.0
 30
0.0
  9
$PUCSORGBACK
 10
0.0
 20
0.0
 30
0.0
  9
$USERI1
 70
     0
  9
$USERI2
 70
     0
  9
$USERI3
 70
     0
  9
$USERI4
 70
     0
  9
$USERI5
 70
     0
  9
$USERR1
 40
0.0
  9
$USERR2
 40
0.0
  9
$USERR3
 40
0.0
  9
$USERR4
 40
0.0
  9
$USERR5
 40
0.0
  9
$WORLDVIEW
 70
     1
  9
$SHADEDGE
 70
     3
  9
$SHADEDIF
 70
    70
  9
$TILEMODE
 70
     1
  9
$MAXACTVP
 70
    64
  9
$PINSBASE
 10
0.0
 20
0.0
 30
0.0
  9
$PLIMCHECK
 70
     0
  9
$PEXTMIN
 10
0.0
 20
0.0
 30
0.0
  9
$PEXTMAX
 10
0.0
 20
0.0
 30
0.0
  9
$PLIMMIN
 10
-20.0
 20
-7.5
  9
$PLIMMAX
 10
277.0
 20
202.5
  9
$UNITMODE
 70
     0
  9
$VISRETAIN
 70
     1
  9
$PLINEGEN
 70
     0
  9
$PSLTSCALE
 70
     1
  9
$TREEDEPTH
 70
  3020
  9
$CMLSTYLE
  2
Standard
  9
$CMLJUST
 70
     0
  9
$CMLSCALE
 40
1.0
  9
$PROXYGRAPHICS
 70
     1
  9
$MEASUREMENT
 70
     1
  9
$CELWEIGHT
370
    -1
  9
$ENDCAPS
280
     0
  9
$JOINSTYLE
280
     0
  9
$LWDISPLAY
290
     0
  9
$INSUNITS
 70
     4
  9
$HYPERLINKBASE
  1

  9
$STYLESHEET
  1

  9
$XEDIT
290
     1
  9
$CEPSNTYPE
380
     0
  9
$PSTYLEMODE
290
     1
  9
$FINGERPRINTGUID
  2
{74707670-7075-3176-3165-347562b47266}
  9
$VERSIONGUID
  2
{FAEB1C32-E019-11D5-929B-00C0DF256EC4}
  9
$EXTNAMES
290
     1
  9
$PSVPSCALE
 40
0.0
  9
$OLESTARTUP
290
     0
  9
$SORTENTS
280
   127
  9
$INDEXCTL
280
     0
  9
$HIDETEXT
280
     1
  9
$XCLIPFRAME
280
     2
  9
$HALOGAP
280
     0
  9
$OBSCOLOR
 70
   257
  9
$OBSLTYPE
280
     0
  9
$INTERSECTIONDISPLAY
280
     0
  9
$INTERSECTIONCOLOR
 70
   257
  9
$DIMASSOC
280
     2
  9
$PROJECTNAME
  1

  9
$CAMERADISPLAY
290
     0
  9
$LENSLENGTH
 40
50.0
  9
$CAMERAHEIGHT
 40
0.0
  9
$STEPSPERSEC
 40
2.0
  9
$STEPSIZE
 40
6.0
  9
$3DDWFPREC
 40
2.0
  9
$PSOLWIDTH
 40
0.25
  9
$PSOLHEIGHT
 40
4.0
  9
$LOFTANG1
 40
1.570796326794897
  9
$LOFTANG2
 40
1.570796326794897
  9
$LOFTMAG1
 40
0.0
  9
$LOFTMAG2
 40
0.0
  9
$LOFTPARAM
 70
     7
  9
$LOFTNORMALS
280
     1
  9
$LATITUDE
 40
37.795
  9
$LONGITUDE
 40
-122.394
  9
$NORTHDIRECTION
 40
0.0
  9
$TIMEZONE
 70
 -8000
  9
$LIGHTGLYPHDISPLAY
280
     1
  9
$TILEMODELIGHTSYNCH
280
     1
  9
$CMATERIAL
347
BD9
  9
$SOLIDHIST
280
     0
  9
$SHOWHIST
280
     1
  9
$DWFFRAME
280
     2
  9
$DGNFRAME
280
     2
  9
$REALWORLDSCALE
290
     1
  9
$INTERFERECOLOR
 62
   256
  9
$CSHADOW
280
     0
  9
$SHADOWPLANELOCATION
 40
0.0
  0
ENDSEC
  0
SECTION
  2
CLASSES
  0
CLASS
  1
ACDBDICTIONARYWDFLT
  2
AcDbDictionaryWithDefault
  3
ObjectDBX Classes
 90
        0
 91
        3
280
     0
281
     0
  0
CLASS
  1
VISUALSTYLE
  2
AcDbVisualStyle
  3
ObjectDBX Classes
 90
     4095
 91
        3
280
     0
281
     0
  0
CLASS
  1
MATERIAL
  2
AcDbMaterial
  3
ObjectDBX Classes
 90
     1153
 91
        3
280
     0
281
     0
  0
CLASS
  1
SCALE
  2
AcDbScale
  3
ObjectDBX Classes
 90
     1153
 91
        3
280
     0
281
     0
  0
CLASS
  1
TABLESTYLE
  2
AcDbTableStyle
  3
ObjectDBX Classes
 90
     4095
 91
        3
280
     0
281
     0
  0
CLASS
  1
MLEADERSTYLE
  2
AcDbMLeaderStyle
  3
ACDB_MLEADERSTYLE_CLASS
 90
     4095
 91
        3
280
     0
281
     0
  0
CLASS
  1
SUN
  2
AcDbSun
  3
SCENEOE
 90
     1153
 91
        3
280
     0
281
     0
  0
CLASS
  1
DICTIONARYVAR
  2
AcDbDictionaryVar
  3
ObjectDBX Classes
 90
        0
 91
        3
280
     0
281
     0
  0
CLASS
  1
CELLSTYLEMAP
  2
AcDbCellStyleMap
  3
ObjectDBX Classes
 90
     1152
 91
        3
280
     0
281
     0
  0
ENDSEC
  0
SECTION
  2
TABLES
  0
TABLE
  2
VPORT
  5
B9E
330
0
100
AcDbSymbolTable
 70
     1
  0
VPORT
  5
BBE
330
B9E
100
AcDbSymbolTableRecord
100
AcDbViewportTableRecord
  2
*Active
 70
     0
 10
0.0
 20
0.0
 11
1.0
 21
1.0
 12
165.4036788902894
 22
112.3544709773858
 13
0.0
 23
0.0
 14
0.5
 24
0.5
 15
0.5
 25
0.5
 16
0.0
 26
0.0
 36
1.0
 17
0.0
 27
0.0
 37
0.0
 40
369.7397353497165
 41
1.969387755102041
 42
50.0
 43
0.0
 44
0.0
 50
0.0
 51
0.0
 71
     0
 72
   100
 73
     1
 74
     3
 75
     0
 76
     0
 77
     0
 78
     0
281
     0
 65
     1
110
0.0
120
0.0
130
0.0
111
1.0
121
0.0
131
0.0
112
0.0
122
1.0
132
0.0
 79
     0
146
0.0
348
BC4
 60
     3
 61
     5
292
     1
282
     1
141
0.0
142
0.0
 63
   250
361
C02
  0
ENDTAB
  0
TABLE
  2
LTYPE
  5
B9B
330
0
100
AcDbSymbolTable
 70
    48
  0
LTYPE
  5
BA9
330
B9B
100
AcDbSymbolTableRecord
100
AcDbLinetypeTableRecord
  2
ByBlock
 70
     0
  3

 72
    65
 73
     0
 40
0.0
  0
LTYPE
  5
BAA
330
B9B
100
AcDbSymbolTableRecord
100
AcDbLinetypeTableRecord
  2
ByLayer
 70
     0
  3

 72
    65
 73
     0
 40
0.0
  0
LTYPE
  5
BAB
330
B9B
100
AcDbSymbolTableRecord
100
AcDbLinetypeTableRecord
  2
Continuous
 70
     0
  3
Solid line
 72
    65
 73
     0
 40
0.0
  0
LTYPE
  5
C39
330
B9B
100
AcDbSymbolTableRecord
100
AcDbLinetypeTableRecord
  2
FENCELINE2
 70
     0
  3
Fenceline square ----[]-----[]----[]-----[]----[]---
 72
    65
 73
     4
 40
36.83
 49
6.35
 74
     0
 49
-2.54
 74
     2
 75
     0
340
C38
 46
2.54
 50
0.0
 44
-2.54
 45
0.0
  9
BOX
 49
-2.54
 74
     0
 49
25.4
 74
     0
  0
LTYPE
  5
C3B
330
B9B
100
AcDbSymbolTableRecord
100
AcDbLinetypeTableRecord
  2
GAS_LINE
 70
     0
  3
Gas line ----GAS----GAS----GAS----GAS----GAS----GAS--
 72
    65
 73
     3
 40
24.13
 49
12.7
 74
     0
 49
-5.08
 74
     2
 75
     0
340
C3A
 46
2.54
 50
0.0
 44
-2.54
 45
-1.27
  9
GAS
 49
-6.35
 74
     0
  0
LTYPE
  5
C3D
330
B9B
100
AcDbSymbolTableRecord
100
AcDbLinetypeTableRecord
  2
DRAINAGE2
 70
     0
  3
Drainage reversed----<----<----<----
 72
    65
 73
     2
 40
10.16
 49
5.08
 74
     2
 75
     0
340
C3C
 46
2.54
 50
0.0
 44
0.0
 45
0.0
  9
RIGHT_ARROW
 49
5.08
 74
     0
  0
LTYPE
  5
C3F
330
B9B
100
AcDbSymbolTableRecord
100
AcDbLinetypeTableRecord
  2
FENCELINE1
 70
     0
  3
Fenceline circle ----0-----0----0-----0----0-----0--
 72
    65
 73
     4
 40
36.83
 49
6.35
 74
     0
 49
-2.54
 74
     2
 75
     0
340
C3E
 46
2.54
 50
0.0
 44
-2.54
 45
0.0
  9
CIRC1
 49
-2.54
 74
     0
 49
25.4
 74
     0
  0
LTYPE
  5
C40
330
B9B
100
AcDbSymbolTableRecord
100
AcDbLinetypeTableRecord
  2
DOTX2
 70
     0
  3
Dot (2x) .  .  .  .  .  .  .  .  .  .  .  .  .  .
 72
    65
 73
     2
 40
12.7
 49
0.0
 74
     0
 49
-12.7
 74
     0
  0
LTYPE
  5
C42
330
B9B
100
AcDbSymbolTableRecord
100
AcDbLinetypeTableRecord
  2
DRAINAGE
 70
     0
  3
Drainage ---->---->---->----
 72
    65
 73
     2
 40
10.16
 49
5.08
 74
     2
 75
     0
340
C41
 46
2.54
 50
180.0
 44
0.0
 45
0.0
  9
RIGHT_ARROW
 49
5.08
 74
     0
  0
LTYPE
  5
C45
330
B9B
100
AcDbSymbolTableRecord
100
AcDbLinetypeTableRecord
  2
ZIGZAG
 70
     0
  3
Zig zag /\/\/\/\/\/\/\/\/\/\/\/\/\/\/\/\/\/\/\/\/\/\/\/
 72
    65
 73
     4
 40
20.32254
 49
0.00254
 74
     0
 49
-5.08
 74
     2
 75
     0
340
C43
 46
5.08
 50
0.0
 44
-5.08
 45
0.0
  9
ZIG
 49
-10.16
 74
     2
 75
     0
340
C44
 46
5.08
 50
180.0
 44
5.08
 45
0.0
  9
ZIG
 49
-5.08
 74
     0
  0
LTYPE
  5
C46
330
B9B
100
AcDbSymbolTableRecord
100
AcDbLinetypeTableRecord
  2
PHANTOMX2
 70
     0
  3
Phantom (2x) ____________    ____    ____   _
 72
    65
 73
     6
 40
127.0
 49
63.5
 74
     0
 49
-12.7
 74
     0
 49
12.7
 74
     0
 49
-12.7
 74
     0
 49
12.7
 74
     0
 49
-12.7
 74
     0
  0
LTYPE
  5
C48
330
B9B
100
AcDbSymbolTableRecord
100
AcDbLinetypeTableRecord
  2
TRACKS
 70
     0
  3
Tracks -|-|-|-|-|-|-|-|-|-|-|-|-|-|-|-|-|-|-|-|-|-|-|-|-
 72
    65
 73
     2
 40
7.62
 49
3.81
 74
     2
 75
     0
340
C47
 46
6.35
 50
0.0
 44
0.0
 45
0.0
  9
TRACK1
 49
3.81
 74
     0
  0
LTYPE
  5
C49
330
B9B
100
AcDbSymbolTableRecord
100
AcDbLinetypeTableRecord
  2
PHANTOM
 70
     0
  3
Phantom ______  __  __  ______  __  __  ______ 
 72
    65
 73
     6
 40
63.50000000000001
 49
31.75
 74
     0
 49
-6.35
 74
     0
 49
6.35
 74
     0
 49
-6.35
 74
     0
 49
6.35
 74
     0
 49
-6.35
 74
     0
  0
LTYPE
  5
C4A
330
B9B
100
AcDbSymbolTableRecord
100
AcDbLinetypeTableRecord
  2
PHANTOM2
 70
     0
  3
Phantom (.5x) ___ _ _ ___ _ _ ___ _ _ ___ _ _
 72
    65
 73
     6
 40
31.75
 49
15.875
 74
     0
 49
-3.175
 74
     0
 49
3.175
 74
     0
 49
-3.175
 74
     0
 49
3.175
 74
     0
 49
-3.175
 74
     0
  0
LTYPE
  5
C4B
330
B9B
100
AcDbSymbolTableRecord
100
AcDbLinetypeTableRecord
  2
HIDDENX2
 70
     0
  3
Hidden (2x) ____ ____ ____ ____ ____ ____ ____ 
 72
    65
 73
     2
 40
19.05
 49
12.7
 74
     0
 49
-6.35
 74
     0
  0
LTYPE
  5
C4D
330
B9B
100
AcDbSymbolTableRecord
100
AcDbLinetypeTableRecord
  2
HOT_WATER_SUPPLY
 70
     0
  3
Hot water supply ---- HW ---- HW ---- HW ----
 72
    65
 73
     3
 40
22.86
 49
12.7
 74
     0
 49
-5.08
 74
     2
 75
     0
340
C4C
 46
2.54
 50
0.0
 44
-2.54
 45
-1.27
  9
HW
 49
-5.08
 74
     0
  0
LTYPE
  5
C4E
330
B9B
100
AcDbSymbolTableRecord
100
AcDbLinetypeTableRecord
  2
ACAD_ISO08W100
 70
     0
  3
ISO long-dash short-dash ____ __ ____ __ ____ _
 72
    65
 73
     4
 40
36.0
 49
24.0
 74
     0
 49
-3.0
 74
     0
 49
6.0
 74
     0
 49
-3.0
 74
     0
  0
LTYPE
  5
C4F
330
B9B
100
AcDbSymbolTableRecord
100
AcDbLinetypeTableRecord
  2
ACAD_ISO09W100
 70
     0
  3
ISO long-dash double-short-dash ____ __ __ ____
 72
    65
 73
     6
 40
45.0
 49
24.0
 74
     0
 49
-3.0
 74
     0
 49
6.0
 74
     0
 49
-3.0
 74
     0
 49
6.0
 74
     0
 49
-3.0
 74
     0
  0
LTYPE
  5
C50
330
B9B
100
AcDbSymbolTableRecord
100
AcDbLinetypeTableRecord
  2
ACAD_ISO06W100
 70
     0
  3
ISO long-dash triple-dot ____ ... ____ ... ____
 72
    65
 73
     8
 40
36.0
 49
24.0
 74
     0
 49
-3.0
 74
     0
 49
0.0
 74
     0
 49
-3.0
 74
     0
 49
0.0
 74
     0
 49
-3.0
 74
     0
 49
0.0
 74
     0
 49
-3.0
 74
     0
  0
LTYPE
  5
C51
330
B9B
100
AcDbSymbolTableRecord
100
AcDbLinetypeTableRecord
  2
ACAD_ISO07W100
 70
     0
  3
ISO dot . . . . . . . . . . . . . . . . . . . . 
 72
    65
 73
     2
 40
3.0
 49
0.0
 74
     0
 49
-3.0
 74
     0
  0
LTYPE
  5
C52
330
B9B
100
AcDbSymbolTableRecord
100
AcDbLinetypeTableRecord
  2
ACAD_ISO04W100
 70
     0
  3
ISO long-dash dot ____ . ____ . ____ . ____ . _
 72
    65
 73
     4
 40
30.0
 49
24.0
 74
     0
 49
-3.0
 74
     0
 49
0.0
 74
     0
 49
-3.0
 74
     0
  0
LTYPE
  5
C53
330
B9B
100
AcDbSymbolTableRecord
100
AcDbLinetypeTableRecord
  2
ACAD_ISO05W100
 70
     0
  3
ISO long-dash double-dot ____ .. ____ .. ____ . 
 72
    65
 73
     6
 40
33.0
 49
24.0
 74
     0
 49
-3.0
 74
     0
 49
0.0
 74
     0
 49
-3.0
 74
     0
 49
0.0
 74
     0
 49
-3.0
 74
     0
  0
LTYPE
  5
C54
330
B9B
100
AcDbSymbolTableRecord
100
AcDbLinetypeTableRecord
  2
ACAD_ISO02W100
 70
     0
  3
ISO dash __ __ __ __ __ __ __ __ __ __ __ __ __
 72
    65
 73
     2
 40
15.0
 49
12.0
 74
     0
 49
-3.0
 74
     0
  0
LTYPE
  5
C55
330
B9B
100
AcDbSymbolTableRecord
100
AcDbLinetypeTableRecord
  2
ACAD_ISO03W100
 70
     0
  3
ISO dash space __    __    __    __    __    __
 72
    65
 73
     2
 40
30.0
 49
12.0
 74
     0
 49
-18.0
 74
     0
  0
LTYPE
  5
C58
330
B9B
100
AcDbSymbolTableRecord
100
AcDbLinetypeTableRecord
  2
BATTING
 70
     0
  3
Batting SSSSSSSSSSSSSSSSSSSSSSSSSSSSSSSSSSSSSSSSSSSSSSS
 72
    65
 73
     4
 40
10.16254
 49
0.00254
 74
     0
 49
-2.54
 74
     2
 75
     0
340
C56
 46
2.54
 50
0.0
 44
-2.54
 45
0.0
  9
BAT
 49
-5.08
 74
     2
 75
     0
340
C57
 46
2.54
 50
180.0
 44
2.54
 45
0.0
  9
BAT
 49
-2.54
 74
     0
  0
LTYPE
  5
C59
330
B9B
100
AcDbSymbolTableRecord
100
AcDbLinetypeTableRecord
  2
BORDER
 70
     0
  3
Border __ __ . __ __ . __ __ . __ __ . __ __ .
 72
    65
 73
     6
 40
44.45
 49
12.7
 74
     0
 49
-6.35
 74
     0
 49
12.7
 74
     0
 49
-6.35
 74
     0
 49
0.0
 74
     0
 49
-6.35
 74
     0
  0
LTYPE
  5
C5A
330
B9B
100
AcDbSymbolTableRecord
100
AcDbLinetypeTableRecord
  2
ACAD_ISO14W100
 70
     0
  3
ISO dash triple-dot __ . . . __ . . . __ . . . _
 72
    65
 73
     8
 40
24.0
 49
12.0
 74
     0
 49
-3.0
 74
     0
 49
0.0
 74
     0
 49
-3.0
 74
     0
 49
0.0
 74
     0
 49
-3.0
 74
     0
 49
0.0
 74
     0
 49
-3.0
 74
     0
  0
LTYPE
  5
C5B
330
B9B
100
AcDbSymbolTableRecord
100
AcDbLinetypeTableRecord
  2
ACAD_ISO15W100
 70
     0
  3
ISO double-dash triple-dot __ __ . . . __ __ . .
 72
    65
 73
    10
 40
39.0
 49
12.0
 74
     0
 49
-3.0
 74
     0
 49
12.0
 74
     0
 49
-3.0
 74
     0
 49
0.0
 74
     0
 49
-3.0
 74
     0
 49
0.0
 74
     0
 49
-3.0
 74
     0
 49
0.0
 74
     0
 49
-3.0
 74
     0
  0
LTYPE
  5
C5C
330
B9B
100
AcDbSymbolTableRecord
100
AcDbLinetypeTableRecord
  2
ACAD_ISO12W100
 70
     0
  3
ISO dash double-dot __ . . __ . . __ . . __ . . 
 72
    65
 73
     6
 40
21.0
 49
12.0
 74
     0
 49
-3.0
 74
     0
 49
0.0
 74
     0
 49
-3.0
 74
     0
 49
0.0
 74
     0
 49
-3.0
 74
     0
  0
LTYPE
  5
C5D
330
B9B
100
AcDbSymbolTableRecord
100
AcDbLinetypeTableRecord
  2
ACAD_ISO13W100
 70
     0
  3
ISO double-dash double-dot __ __ . . __ __ . . _
 72
    65
 73
     8
 40
36.0
 49
12.0
 74
     0
 49
-3.0
 74
     0
 49
12.0
 74
     0
 49
-3.0
 74
     0
 49
0.0
 74
     0
 49
-3.0
 74
     0
 49
0.0
 74
     0
 49
-3.0
 74
     0
  0
LTYPE
  5
C5E
330
B9B
100
AcDbSymbolTableRecord
100
AcDbLinetypeTableRecord
  2
ACAD_ISO10W100
 70
     0
  3
ISO dash dot __ . __ . __ . __ . __ . __ . __ . 
 72
    65
 73
     4
 40
18.0
 49
12.0
 74
     0
 49
-3.0
 74
     0
 49
0.0
 74
     0
 49
-3.0
 74
     0
  0
LTYPE
  5
C5F
330
B9B
100
AcDbSymbolTableRecord
100
AcDbLinetypeTableRecord
  2
ACAD_ISO11W100
 70
     0
  3
ISO double-dash dot __ __ . __ __ . __ __ . __ _
 72
    65
 73
     6
 40
33.0
 49
12.0
 74
     0
 49
-3.0
 74
     0
 49
12.0
 74
     0
 49
-3.0
 74
     0
 49
0.0
 74
     0
 49
-3.0
 74
     0
  0
LTYPE
  5
C60
330
B9B
100
AcDbSymbolTableRecord
100
AcDbLinetypeTableRecord
  2
DASHDOT2
 70
     0
  3
Dash dot (.5x) _._._._._._._._._._._._._._._.
 72
    65
 73
     4
 40
12.7
 49
6.35
 74
     0
 49
-3.175
 74
     0
 49
0.0
 74
     0
 49
-3.175
 74
     0
  0
LTYPE
  5
C61
330
B9B
100
AcDbSymbolTableRecord
100
AcDbLinetypeTableRecord
  2
DASHDOTX2
 70
     0
  3
Dash dot (2x) ____  .  ____  .  ____  .  ___
 72
    65
 73
     4
 40
50.8
 49
25.4
 74
     0
 49
-12.7
 74
     0
 49
0.0
 74
     0
 49
-12.7
 74
     0
  0
LTYPE
  5
C62
330
B9B
100
AcDbSymbolTableRecord
100
AcDbLinetypeTableRecord
  2
CENTERX2
 70
     0
  3
Center (2x) ________  __  ________  __  _____
 72
    65
 73
     4
 40
101.6
 49
63.5
 74
     0
 49
-12.7
 74
     0
 49
12.7
 74
     0
 49
-12.7
 74
     0
  0
LTYPE
  5
C63
330
B9B
100
AcDbSymbolTableRecord
100
AcDbLinetypeTableRecord
  2
DASHDOT
 70
     0
  3
Dash dot __ . __ . __ . __ . __ . __ . __ . __
 72
    65
 73
     4
 40
25.4
 49
12.7
 74
     0
 49
-6.35
 74
     0
 49
0.0
 74
     0
 49
-6.35
 74
     0
  0
LTYPE
  5
C64
330
B9B
100
AcDbSymbolTableRecord
100
AcDbLinetypeTableRecord
  2
CENTER
 70
     0
  3
Center ____ _ ____ _ ____ _ ____ _ ____ _ ____
 72
    65
 73
     4
 40
50.8
 49
31.75
 74
     0
 49
-6.35
 74
     0
 49
6.35
 74
     0
 49
-6.35
 74
     0
  0
LTYPE
  5
C65
330
B9B
100
AcDbSymbolTableRecord
100
AcDbLinetypeTableRecord
  2
CENTER2
 70
     0
  3
Center (.5x) ___ _ ___ _ ___ _ ___ _ ___ _ ___
 72
    65
 73
     4
 40
28.575
 49
19.05
 74
     0
 49
-3.175
 74
     0
 49
3.175
 74
     0
 49
-3.175
 74
     0
  0
LTYPE
  5
C66
330
B9B
100
AcDbSymbolTableRecord
100
AcDbLinetypeTableRecord
  2
BORDER2
 70
     0
  3
Border (.5x) __.__.__.__.__.__.__.__.__.__.__.
 72
    65
 73
     6
 40
22.225
 49
6.35
 74
     0
 49
-3.175
 74
     0
 49
6.35
 74
     0
 49
-3.175
 74
     0
 49
0.0
 74
     0
 49
-3.175
 74
     0
  0
LTYPE
  5
C67
330
B9B
100
AcDbSymbolTableRecord
100
AcDbLinetypeTableRecord
  2
BORDERX2
 70
     0
  3
Border (2x) ____  ____  .  ____  ____  .  ___
 72
    65
 73
     6
 40
88.89999999999999
 49
25.4
 74
     0
 49
-12.7
 74
     0
 49
25.4
 74
     0
 49
-12.7
 74
     0
 49
0.0
 74
     0
 49
-12.7
 74
     0
  0
LTYPE
  5
C68
330
B9B
100
AcDbSymbolTableRecord
100
AcDbLinetypeTableRecord
  2
DOT
 70
     0
  3
Dot . . . . . . . . . . . . . . . . . . . . . . . .
 72
    65
 73
     2
 40
6.35
 49
0.0
 74
     0
 49
-6.35
 74
     0
  0
LTYPE
  5
C69
330
B9B
100
AcDbSymbolTableRecord
100
AcDbLinetypeTableRecord
  2
DOT2
 70
     0
  3
Dot (.5x) ........................................
 72
    65
 73
     2
 40
3.175
 49
0.0
 74
     0
 49
-3.175
 74
     0
  0
LTYPE
  5
C6A
330
B9B
100
AcDbSymbolTableRecord
100
AcDbLinetypeTableRecord
  2
DIVIDE2
 70
     0
  3
Divide (.5x) __..__..__..__..__..__..__..__.._
 72
    65
 73
     6
 40
15.875
 49
6.35
 74
     0
 49
-3.175
 74
     0
 49
0.0
 74
     0
 49
-3.175
 74
     0
 49
0.0
 74
     0
 49
-3.175
 74
     0
  0
LTYPE
  5
C6B
330
B9B
100
AcDbSymbolTableRecord
100
AcDbLinetypeTableRecord
  2
DIVIDEX2
 70
     0
  3
Divide (2x) ________  .  .  ________  .  .  _
 72
    65
 73
     6
 40
63.5
 49
25.4
 74
     0
 49
-12.7
 74
     0
 49
0.0
 74
     0
 49
-12.7
 74
     0
 49
0.0
 74
     0
 49
-12.7
 74
     0
  0
LTYPE
  5
C6C
330
B9B
100
AcDbSymbolTableRecord
100
AcDbLinetypeTableRecord
  2
DASHEDX2
 70
     0
  3
Dashed (2x) ____  ____  ____  ____  ____  ___
 72
    65
 73
     2
 40
38.09999999999999
 49
25.4
 74
     0
 49
-12.7
 74
     0
  0
LTYPE
  5
C6D
330
B9B
100
AcDbSymbolTableRecord
100
AcDbLinetypeTableRecord
  2
DIVIDE
 70
     0
  3
Divide ____ . . ____ . . ____ . . ____ . . ____
 72
    65
 73
     6
 40
31.75
 49
12.7
 74
     0
 49
-6.35
 74
     0
 49
0.0
 74
     0
 49
-6.35
 74
     0
 49
0.0
 74
     0
 49
-6.35
 74
     0
  0
LTYPE
  5
C6E
330
B9B
100
AcDbSymbolTableRecord
100
AcDbLinetypeTableRecord
  2
DASHED
 70
     0
  3
Dashed __ __ __ __ __ __ __ __ __ __ __ __ __ _
 72
    65
 73
     2
 40
19.05
 49
12.7
 74
     0
 49
-6.35
 74
     0
  0
LTYPE
  5
C6F
330
B9B
100
AcDbSymbolTableRecord
100
AcDbLinetypeTableRecord
  2
DASHED2
 70
     0
  3
Dashed (.5x) _ _ _ _ _ _ _ _ _ _ _ _ _ _ _ _ _ 
 72
    65
 73
     2
 40
9.524999999999999
 49
6.35
 74
     0
 49
-3.175
 74
     0
  0
LTYPE
  5
C70
330
B9B
100
AcDbSymbolTableRecord
100
AcDbLinetypeTableRecord
  2
HIDDEN
 70
     0
  3
Hidden __ __ __ __ __ __ __ __ __ __ __ __ __ __
 72
    65
 73
     2
 40
9.524999999999999
 49
6.35
 74
     0
 49
-3.175
 74
     0
  0
LTYPE
  5
C71
330
B9B
100
AcDbSymbolTableRecord
100
AcDbLinetypeTableRecord
  2
HIDDEN2
 70
     0
  3
Hidden (.5x) _ _ _ _ _ _ _ _ _ _ _ _ _ _ _ _ _ 
 72
    65
 73
     2
 40
4.762499999999999
 49
3.175
 74
     0
 49
-1.5875
 74
     0
  0
ENDTAB
  0
TABLE
  2
LAYER
  5
B99
330
0
100
AcDbSymbolTable
 70
     1
  0
LAYER
  5
BA6
330
B99
100
AcDbSymbolTableRecord
100
AcDbLayerTableRecord
  2
0
 70
     0
 62
     7
420
 16777215
  6
Continuous
370
    25
390
BA5
347
BDB
348
0
  0
ENDTAB
  0
TABLE
  2
STYLE
  5
B9A
330
0
100
AcDbSymbolTable
 70
    20
  0
STYLE
  5
BA7
330
B9A
100
AcDbSymbolTableRecord
100
AcDbTextStyleTableRecord
  2
Standard
 70
     0
 40
0.0
 41
1.0
 50
0.0
 71
     0
 42
0.2
  3
txt
  4

  0
STYLE
  5
C36
330
B9A
100
AcDbSymbolTableRecord
100
AcDbTextStyleTableRecord
  2
QCADDimTextStyle
 70
     0
 40
0.0
 41
1.0
 50
0.0
 71
     0
 42
0.2
  3

  4

1001
ACAD
1000
DejaVu Sans
1071
        0
  0
STYLE
  5
C38
330
B9A
100
AcDbSymbolTableRecord
100
AcDbTextStyleTableRecord
  2
textstyle0
 70
     0
 40
0.0
 41
1.0
 50
0.0
 71
     0
 42
0.2
  3
ltypeshp.shx
  4

  0
STYLE
  5
C3A
330
B9A
100
AcDbSymbolTableRecord
100
AcDbTextStyleTableRecord
  2
textstyle1
 70
     0
 40
0.0
 41
1.0
 50
0.0
 71
     0
 42
0.2
  3
STANDARD
  4

  0
STYLE
  5
C3C
330
B9A
100
AcDbSymbolTableRecord
100
AcDbTextStyleTableRecord
  2
textstyle2
 70
     0
 40
0.0
 41
1.0
 50
0.0
 71
     0
 42
0.2
  3
qcadshp.shx
  4

  0
STYLE
  5
C3E
330
B9A
100
AcDbSymbolTableRecord
100
AcDbTextStyleTableRecord
  2
textstyle3
 70
     0
 40
0.0
 41
1.0
 50
0.0
 71
     0
 42
0.2
  3
ltypeshp.shx
  4

  0
STYLE
  5
C41
330
B9A
100
AcDbSymbolTableRecord
100
AcDbTextStyleTableRecord
  2
textstyle4
 70
     0
 40
0.0
 41
1.0
 50
0.0
 71
     0
 42
0.2
  3
qcadshp.shx
  4

  0
STYLE
  5
C43
330
B9A
100
AcDbSymbolTableRecord
100
AcDbTextStyleTableRecord
  2
textstyle5
 70
     0
 40
0.0
 41
1.0
 50
0.0
 71
     0
 42
0.2
  3
ltypeshp.shx
  4

  0
STYLE
  5
C44
330
B9A
100
AcDbSymbolTableRecord
100
AcDbTextStyleTableRecord
  2
textstyle6
 70
     0
 40
0.0
 41
1.0
 50
0.0
 71
     0
 42
0.2
  3
ltypeshp.shx
  4

  0
STYLE
  5
C47
330
B9A
100
AcDbSymbolTableRecord
100
AcDbTextStyleTableRecord
  2
textstyle7
 70
     0
 40
0.0
 41
1.0
 50
0.0
 71
     0
 42
0.2
  3
ltypeshp.shx
  4

  0
STYLE
  5
C4C
330
B9A
100
AcDbSymbolTableRecord
100
AcDbTextStyleTableRecord
  2
textstyle8
 70
     0
 40
0.0
 41
1.0
 50
0.0
 71
     0
 42
0.2
  3
STANDARD
  4

  0
STYLE
  5
C56
330
B9A
100
AcDbSymbolTableRecord
100
AcDbTextStyleTableRecord
  2
textstyle9
 70
     0
 40
0.0
 41
1.0
 50
0.0
 71
     0
 42
0.2
  3
ltypeshp.shx
  4

  0
STYLE
  5
C57
330
B9A
100
AcDbSymbolTableRecord
100
AcDbTextStyleTableRecord
  2
textstyle10
 70
     0
 40
0.0
 41
1.0
 50
0.0
 71
     0
 42
0.2
  3
ltypeshp.shx
  4

  0
STYLE
  5
C74
330
B9A
100
AcDbSymbolTableRecord
100
AcDbTextStyleTableRecord
  2
textstyle11
 70
     0
 40
0.0
 41
1.0
 50
0.0
 71
     0
 42
0.2
  3

  4

1001
ACAD
1000
arial.ttf
1071
        0
  0
STYLE
  5
C75
330
B9A
100
AcDbSymbolTableRecord
100
AcDbTextStyleTableRecord
  2
textstyle12
 70
     0
 40
0.0
 41
1.0
 50
0.0
 71
     0
 42
0.2
  3

  4

1001
ACAD
1000
arial.ttf
1071
        0
  0
STYLE
  5
C76
330
B9A
100
AcDbSymbolTableRecord
100
AcDbTextStyleTableRecord
  2
textstyle13
 70
     0
 40
0.0
 41
1.0
 50
0.0
 71
     0
 42
0.2
  3

  4

1001
ACAD
1000
arial.ttf
1071
        0
  0
STYLE
  5
C77
330
B9A
100
AcDbSymbolTableRecord
100
AcDbTextStyleTableRecord
  2
textstyle14
 70
     0
 40
0.0
 41
1.0
 50
0.0
 71
     0
 42
0.2
  3

  4

1001
ACAD
1000
arial.ttf
1071
        0
  0
STYLE
  5
C78
330
B9A
100
AcDbSymbolTableRecord
100
AcDbTextStyleTableRecord
  2
textstyle15
 70
     0
 40
0.0
 41
1.0
 50
0.0
 71
     0
 42
0.2
  3

  4

1001
ACAD
1000
arial.ttf
1071
        0
  0
STYLE
  5
C79
330
B9A
100
AcDbSymbolTableRecord
100
AcDbTextStyleTableRecord
  2
textstyle16
 70
     0
 40
0.0
 41
1.0
 50
0.0
 71
     0
 42
0.2
  3

  4

1001
ACAD
1000
arial.ttf
1071
        0
  0
STYLE
  5
C7A
330
B9A
100
AcDbSymbolTableRecord
100
AcDbTextStyleTableRecord
  2
textstyle17
 70
     0
 40
0.0
 41
1.0
 50
0.0
 71
     0
 42
0.2
  3

  4

1001
ACAD
1000
DejaVu Sans
1071
        0
  0
ENDTAB
  0
TABLE
  2
VIEW
  5
B9C
330
0
100
AcDbSymbolTable
 70
     0
  0
ENDTAB
  0
TABLE
  2
UCS
  5
B9D
330
0
100
AcDbSymbolTable
 70
     0
  0
ENDTAB
  0
TABLE
  2
APPID
  5
B9F
330
0
100
AcDbSymbolTable
 70
     2
  0
APPID
  5
BA8
330
B9F
100
AcDbSymbolTableRecord
100
AcDbRegAppTableRecord
  2
ACAD
 70
     0
  0
APPID
  5
C03
330
B9F
100
AcDbSymbolTableRecord
100
AcDbRegAppTableRecord
  2
QCAD
 70
     0
  0
ENDTAB
  0
TABLE
  2
DIMSTYLE
  5
BA0
330
0
100
AcDbSymbolTable
 70
     2
100
AcDbDimStyleTable
  0
DIMSTYLE
105
BBC
330
BA0
100
AcDbSymbolTableRecord
100
AcDbDimStyleTableRecord
  2
Standard
 70
     0
178
     0
340
BA7
  0
DIMSTYLE
105
C37
330
BA0
100
AcDbSymbolTableRecord
100
AcDbDimStyleTableRecord
  2
QCADDimStyle
 70
     0
 41
10.0
 42
2.5
 44
5.0
 73
     0
 77
     1
140
10.0
147
2.5
178
     0
340
C36
  0
ENDTAB
  0
TABLE
  2
BLOCK_RECORD
  5
B98
330
0
100
AcDbSymbolTable
 70
     0
  0
BLOCK_RECORD
  5
BB4
330
B98
100
AcDbSymbolTableRecord
100
AcDbBlockTableRecord
  2
*Model_Space
340
BB7
 70
     0
280
     1
281
     0
  0
BLOCK_RECORD
  5
BB0
330
B98
100
AcDbSymbolTableRecord
100
AcDbBlockTableRecord
  2
*Paper_Space
340
BB3
 70
     0
280
     1
281
     0
  0
ENDTAB
  0
ENDSEC
  0
SECTION
  2
BLOCKS
  0
BLOCK
  5
BB5
330
BB4
100
AcDbEntity
  8
0
100
AcDbBlockBegin
  2
*Model_Space
 70
     0
 10
0.0
 20
0.0
 30
0.0
  3
*Model_Space
  1

  0
ENDBLK
  5
BB6
330
BB4
100
AcDbEntity
  8
0
100
AcDbBlockEnd
  0
BLOCK
  5
BB1
330
BB0
100
AcDbEntity
 67
     1
  8
0
100
AcDbBlockBegin
  2
*Paper_Space
 70
     0
 10
0.0
 20
0.0
 30
0.0
  3
*Paper_Space
  1

  0
ENDBLK
  5
BB2
330
BB0
100
AcDbEntity
 67
     1
  8
0
100
AcDbBlockEnd
  0
ENDSEC
  0
SECTION
  2
ENTITIES
  0
LINE
  5
84E
330
BB4
100
AcDbEntity
  8
0
100
AcDbLine
 10
172.241415444141
 20
135.8613402906579
 30
0.0
 11
172.0991653831058
 21
135.3923566404503
 31
0.0
  0
LINE
  5
84F
330
BB4
100
AcDbEntity
  8
0
100
AcDbLine
 10
242.8313717755927
 20
155.6126994113529
 30
0.0
 11
242.6891217145576
 21
155.1437157611454
 31
0.0
  0
LINE
  5
9F1
330
BB4
100
AcDbEntity
  8
0
100
AcDbLine
 10
172.2586555197554
 20
22.82353310729303
 30
0.0
 11
172.1164054587202
 21
22.35454945708551
 31
0.0
  0
LINE
  5
9F2
330
BB4
100
AcDbEntity
  8
0
100
AcDbLine
 10
242.8486118512072
 20
42.57489222798812
 30
0.0
 11
242.706361790172
 21
42.1059085777806
 31
0.0
  0
LINE
  5
850
330
BB4
100
AcDbEntity
  8
0
100
AcDbLine
 10
172.0991653831058
 20
135.3923566404503
 30
0.0
 11
172.0708221824222
 21
135.104308849923
 31
0.0
  0
LINE
  5
851
330
BB4
100
AcDbEntity
  8
0
100
AcDbLine
 10
242.6891217145576
 20
155.1437157611454
 30
0.0
 11
242.660778513874
 21
154.8556679706181
 31
0.0
  0
LINE
  5
9F3
330
BB4
100
AcDbEntity
  8
0
100
AcDbLine
 10
172.1164054587202
 20
22.35454945708551
 30
0.0
 11
172.0880622580366
 21
22.06650166655817
 31
0.0
  0
LINE
  5
9F4
330
BB4
100
AcDbEntity
  8
0
100
AcDbLine
 10
242.706361790172
 20
42.1059085777806
 30
0.0
 11
242.6780185894884
 21
41.81786078725325
 31
0.0
  0
LINE
  5
852
330
BB4
100
AcDbEntity
  8
0
100
AcDbLine
 10
172.0708221824222
 20
135.104308849923
 30
0.0
 11
172.0511764915042
 21
134.9046332899254
 31
0.0
  0
LINE
  5
853
330
BB4
100
AcDbEntity
  8
0
100
AcDbLine
 10
242.660778513874
 20
154.8556679706181
 30
0.0
 11
242.641132822956
 21
154.6559924106205
 31
0.0
  0
LINE
  5
9F5
330
BB4
100
AcDbEntity
  8
0
100
AcDbLine
 10
172.0880622580366
 20
22.06650166655817
 30
0.0
 11
172.0684165671187
 21
21.86682610656061
 31
0.0
  0
LINE
  5
9F6
330
BB4
100
AcDbEntity
  8
0
100
AcDbLine
 10
242.6780185894884
 20
41.81786078725325
 30
0.0
 11
242.6583728985704
 21
41.61818522725569
 31
0.0
  0
LINE
  5
854
330
BB4
100
AcDbEntity
  8
0
100
AcDbLine
 10
172.0511764915042
 20
134.9046332899254
 30
0.0
 11
172.0991653831058
 21
134.416905171029
 31
0.0
  0
LINE
  5
855
330
BB4
100
AcDbEntity
  8
0
100
AcDbLine
 10
242.641132822956
 20
154.6559924106205
 30
0.0
 11
242.6891217145576
 21
154.168264291724
 31
0.0
  0
LINE
  5
9F7
330
BB4
100
AcDbEntity
  8
0
100
AcDbLine
 10
172.0684165671187
 20
21.86682610656061
 30
0.0
 11
172.1164054587202
 21
21.37909798766412
 31
0.0
  0
LINE
  5
9F8
330
BB4
100
AcDbEntity
  8
0
100
AcDbLine
 10
242.6583728985704
 20
41.61818522725569
 30
0.0
 11
242.706361790172
 21
41.13045710835921
 31
0.0
  0
LINE
  5
856
330
BB4
100
AcDbEntity
  8
0
100
AcDbLine
 10
172.0991653831058
 20
134.416905171029
 30
0.0
 11
172.2414535911136
 21
133.9479215208214
 31
0.0
  0
LINE
  5
857
330
BB4
100
AcDbEntity
  8
0
100
AcDbLine
 10
242.6891217145576
 20
154.168264291724
 30
0.0
 11
242.8314099225654
 21
153.6992806415165
 31
0.0
  0
LINE
  5
9F9
330
BB4
100
AcDbEntity
  8
0
100
AcDbLine
 10
172.1164054587202
 20
21.37909798766412
 30
0.0
 11
172.258693666728
 21
20.9101143374566
 31
0.0
  0
LINE
  5
9FA
330
BB4
100
AcDbEntity
  8
0
100
AcDbLine
 10
242.706361790172
 20
41.13045710835921
 30
0.0
 11
242.8486499981798
 21
40.66147345815169
 31
0.0
  0
LINE
  5
858
330
BB4
100
AcDbEntity
  8
0
100
AcDbLine
 10
172.2414535911136
 20
133.9479215208214
 30
0.0
 11
172.4724716575199
 21
133.5157020155114
 31
0.0
  0
LINE
  5
859
330
BB4
100
AcDbEntity
  8
0
100
AcDbLine
 10
242.8314099225654
 20
153.6992806415165
 30
0.0
 11
243.0624279889716
 21
153.2670611362065
 31
0.0
  0
LINE
  5
9FB
330
BB4
100
AcDbEntity
  8
0
100
AcDbLine
 10
172.258693666728
 20
20.9101143374566
 30
0.0
 11
172.4897117331343
 21
20.47789483214655
 31
0.0
  0
LINE
  5
9FC
330
BB4
100
AcDbEntity
  8
0
100
AcDbLine
 10
242.8486499981798
 20
40.66147345815169
 30
0.0
 11
243.0796680645861
 21
40.22925395284163
 31
0.0
  0
LINE
  5
85A
330
BB4
100
AcDbEntity
  8
0
100
AcDbLine
 10
172.4724716575199
 20
133.5157020155114
 30
0.0
 11
172.7833694846683
 21
133.1368644300622
 31
0.0
  0
LINE
  5
85B
330
BB4
100
AcDbEntity
  8
0
100
AcDbLine
 10
243.0624279889716
 20
153.2670611362065
 30
0.0
 11
243.3733258161201
 21
152.8882235507572
 31
0.0
  0
LINE
  5
9FD
330
BB4
100
AcDbEntity
  8
0
100
AcDbLine
 10
172.4897117331343
 20
20.47789483214655
 30
0.0
 11
172.8006095602827
 21
20.09905724669733
 31
0.0
  0
LINE
  5
9FE
330
BB4
100
AcDbEntity
  8
0
100
AcDbLine
 10
243.0796680645861
 20
40.22925395284163
 30
0.0
 11
243.3905658917345
 21
39.85041636739241
 31
0.0
  0
LINE
  5
85C
330
BB4
100
AcDbEntity
  8
0
100
AcDbLine
 10
172.7833694846683
 20
133.1368644300622
 30
0.0
 11
173.1622070701175
 21
132.8259570661706
 31
0.0
  0
LINE
  5
85D
330
BB4
100
AcDbEntity
  8
0
100
AcDbLine
 10
243.3733258161201
 20
152.8882235507572
 30
0.0
 11
243.7521634015693
 21
152.5773161868656
 31
0.0
  0
LINE
  5
9FF
330
BB4
100
AcDbEntity
  8
0
100
AcDbLine
 10
172.8006095602827
 20
20.09905724669733
 30
0.0
 11
173.179447145732
 21
19.78814988280573
 31
0.0
  0
LINE
  5
A00
330
BB4
100
AcDbEntity
  8
0
100
AcDbLine
 10
243.3905658917345
 20
39.85041636739241
 30
0.0
 11
243.7694034771837
 21
39.53950900350081
 31
0.0
  0
LINE
  5
85E
330
BB4
100
AcDbEntity
  8
0
100
AcDbLine
 10
173.1622070701175
 20
132.8259570661706
 30
0.0
 11
173.5943741233402
 21
132.5949294630211
 31
0.0
  0
LINE
  5
85F
330
BB4
100
AcDbEntity
  8
0
100
AcDbLine
 10
243.7521634015693
 20
152.5773161868656
 30
0.0
 11
244.1843304547919
 21
152.3462885837162
 31
0.0
  0
LINE
  5
A01
330
BB4
100
AcDbEntity
  8
0
100
AcDbLine
 10
173.179447145732
 20
19.78814988280573
 30
0.0
 11
173.6116141989546
 21
19.55712227965631
 31
0.0
  0
LINE
  5
A02
330
BB4
100
AcDbEntity
  8
0
100
AcDbLine
 10
243.7694034771837
 20
39.53950900350081
 30
0.0
 11
244.2015705304064
 21
39.3084814003514
 31
0.0
  0
LINE
  5
860
330
BB4
100
AcDbEntity
  8
0
100
AcDbLine
 10
173.5943741233402
 20
132.5949294630211
 30
0.0
 11
174.0634292991214
 21
132.4526603284997
 31
0.0
  0
LINE
  5
861
330
BB4
100
AcDbEntity
  8
0
100
AcDbLine
 10
244.1843304547919
 20
152.3462885837162
 30
0.0
 11
244.6533856305732
 21
152.2040194491947
 31
0.0
  0
LINE
  5
A03
330
BB4
100
AcDbEntity
  8
0
100
AcDbLine
 10
173.6116141989546
 20
19.55712227965631
 30
0.0
 11
174.0806693747359
 21
19.41485314513483
 31
0.0
  0
LINE
  5
A04
330
BB4
100
AcDbEntity
  8
0
100
AcDbLine
 10
244.2015705304064
 20
39.3084814003514
 30
0.0
 11
244.6706257061876
 21
39.16621226582991
 31
0.0
  0
LINE
  5
862
330
BB4
100
AcDbEntity
  8
0
100
AcDbLine
 10
174.0634292991214
 20
132.4526603284997
 30
0.0
 11
174.5511383445316
 21
132.4046285215539
 31
0.0
  0
LINE
  5
863
330
BB4
100
AcDbEntity
  8
0
100
AcDbLine
 10
244.6533856305732
 20
152.2040194491947
 30
0.0
 11
245.1410946759833
 21
152.1559876422489
 31
0.0
  0
LINE
  5
A05
330
BB4
100
AcDbEntity
  8
0
100
AcDbLine
 10
174.0806693747359
 20
19.41485314513483
 30
0.0
 11
174.568378420146
 21
19.36682133818903
 31
0.0
  0
LINE
  5
A06
330
BB4
100
AcDbEntity
  8
0
100
AcDbLine
 10
244.6706257061876
 20
39.16621226582991
 30
0.0
 11
245.1583347515978
 21
39.11818045888411
 31
0.0
  0
LINE
  5
864
330
BB4
100
AcDbEntity
  8
0
100
AcDbLine
 10
174.5511383445316
 20
132.4046285215539
 30
0.0
 11
175.0388473899417
 21
132.4526603284997
 31
0.0
  0
LINE
  5
865
330
BB4
100
AcDbEntity
  8
0
100
AcDbLine
 10
245.1410946759833
 20
152.1559876422489
 30
0.0
 11
245.6288037213935
 21
152.2040194491947
 31
0.0
  0
LINE
  5
A07
330
BB4
100
AcDbEntity
  8
0
100
AcDbLine
 10
174.568378420146
 20
19.36682133818903
 30
0.0
 11
175.0560874655562
 21
19.41485314513483
 31
0.0
  0
LINE
  5
A08
330
BB4
100
AcDbEntity
  8
0
100
AcDbLine
 10
245.1583347515978
 20
39.11818045888411
 30
0.0
 11
245.6460437970079
 21
39.16621226582991
 31
0.0
  0
LINE
  5
866
330
BB4
100
AcDbEntity
  8
0
100
AcDbLine
 10
175.0388473899417
 20
132.4526603284997
 30
0.0
 11
175.2750534446292
 21
132.5243194166344
 31
0.0
  0
LINE
  5
867
330
BB4
100
AcDbEntity
  8
0
100
AcDbLine
 10
245.6288037213935
 20
152.2040194491947
 30
0.0
 11
245.865009776081
 21
152.2756785373295
 31
0.0
  0
LINE
  5
A09
330
BB4
100
AcDbEntity
  8
0
100
AcDbLine
 10
175.0560874655562
 20
19.41485314513483
 30
0.0
 11
175.2922935202437
 21
19.48651223326959
 31
0.0
  0
LINE
  5
A0A
330
BB4
100
AcDbEntity
  8
0
100
AcDbLine
 10
245.6460437970079
 20
39.16621226582991
 30
0.0
 11
245.8822498516954
 21
39.23787135396468
 31
0.0
  0
LINE
  5
868
330
BB4
100
AcDbEntity
  8
0
100
AcDbLine
 10
175.2750534446292
 20
132.5243194166344
 30
0.0
 11
175.5078262717777
 21
132.5949294630211
 31
0.0
  0
LINE
  5
869
330
BB4
100
AcDbEntity
  8
0
100
AcDbLine
 10
245.865009776081
 20
152.2756785373295
 30
0.0
 11
246.0977826032294
 21
152.3462885837162
 31
0.0
  0
LINE
  5
A0B
330
BB4
100
AcDbEntity
  8
0
100
AcDbLine
 10
175.2922935202437
 20
19.48651223326959
 30
0.0
 11
175.5250663473921
 21
19.55712227965631
 31
0.0
  0
LINE
  5
A0C
330
BB4
100
AcDbEntity
  8
0
100
AcDbLine
 10
245.8822498516954
 20
39.23787135396468
 30
0.0
 11
246.1150226788439
 21
39.3084814003514
 31
0.0
  0
LINE
  5
86A
330
BB4
100
AcDbEntity
  8
0
100
AcDbLine
 10
175.5078262717777
 20
132.5949294630211
 30
0.0
 11
175.9401077659183
 21
132.825952297799
 31
0.0
  0
LINE
  5
86B
330
BB4
100
AcDbEntity
  8
0
100
AcDbLine
 10
246.0977826032294
 20
152.3462885837162
 30
0.0
 11
246.5300640973701
 21
152.577311418494
 31
0.0
  0
LINE
  5
A0D
330
BB4
100
AcDbEntity
  8
0
100
AcDbLine
 10
175.5250663473921
 20
19.55712227965631
 30
0.0
 11
175.9573478415327
 21
19.78814511443414
 31
0.0
  0
LINE
  5
A0E
330
BB4
100
AcDbEntity
  8
0
100
AcDbLine
 10
246.1150226788439
 20
39.3084814003514
 30
0.0
 11
246.5473041729845
 21
39.53950423512923
 31
0.0
  0
LINE
  5
86C
330
BB4
100
AcDbEntity
  8
0
100
AcDbLine
 10
175.9401077659183
 20
132.825952297799
 30
0.0
 11
176.3189072043949
 21
133.1368596616906
 31
0.0
  0
LINE
  5
86D
330
BB4
100
AcDbEntity
  8
0
100
AcDbLine
 10
246.5300640973701
 20
152.577311418494
 30
0.0
 11
246.9088635358466
 21
152.8882187823856
 31
0.0
  0
LINE
  5
A0F
330
BB4
100
AcDbEntity
  8
0
100
AcDbLine
 10
175.9573478415327
 20
19.78814511443414
 30
0.0
 11
176.3361472800093
 21
20.09905247832575
 31
0.0
  0
LINE
  5
A10
330
BB4
100
AcDbEntity
  8
0
100
AcDbLine
 10
246.5473041729845
 20
39.53950423512923
 30
0.0
 11
246.9261036114611
 21
39.85041159902083
 31
0.0
  0
LINE
  5
86E
330
BB4
100
AcDbEntity
  8
0
100
AcDbLine
 10
176.3189072043949
 20
133.1368596616906
 30
0.0
 11
176.6298050315433
 21
133.5157020155114
 31
0.0
  0
LINE
  5
86F
330
BB4
100
AcDbEntity
  8
0
100
AcDbLine
 10
246.9088635358466
 20
152.8882187823856
 30
0.0
 11
247.2197613629951
 21
153.2670611362065
 31
0.0
  0
LINE
  5
A11
330
BB4
100
AcDbEntity
  8
0
100
AcDbLine
 10
176.3361472800093
 20
20.09905247832575
 30
0.0
 11
176.6470451071577
 21
20.47789483214655
 31
0.0
  0
LINE
  5
A12
330
BB4
100
AcDbEntity
  8
0
100
AcDbLine
 10
246.9261036114611
 20
39.85041159902083
 30
0.0
 11
247.2370014386095
 21
40.22925395284163
 31
0.0
  0
LINE
  5
870
330
BB4
100
AcDbEntity
  8
0
100
AcDbLine
 10
176.6298050315433
 20
133.5157020155114
 30
0.0
 11
176.8608230979495
 21
133.9479215208214
 31
0.0
  0
LINE
  5
871
330
BB4
100
AcDbEntity
  8
0
100
AcDbLine
 10
247.2197613629951
 20
153.2670611362065
 30
0.0
 11
247.4507794294013
 21
153.6992806415165
 31
0.0
  0
LINE
  5
A13
330
BB4
100
AcDbEntity
  8
0
100
AcDbLine
 10
176.6470451071577
 20
20.47789483214655
 30
0.0
 11
176.878063173564
 21
20.9101143374566
 31
0.0
  0
LINE
  5
A14
330
BB4
100
AcDbEntity
  8
0
100
AcDbLine
 10
247.2370014386095
 20
40.22925395284163
 30
0.0
 11
247.4680195050157
 21
40.66147345815169
 31
0.0
  0
LINE
  5
872
330
BB4
100
AcDbEntity
  8
0
100
AcDbLine
 10
176.8608230979495
 20
133.9479215208214
 30
0.0
 11
177.0031113059574
 21
134.416905171029
 31
0.0
  0
LINE
  5
873
330
BB4
100
AcDbEntity
  8
0
100
AcDbLine
 10
247.4507794294013
 20
153.6992806415165
 30
0.0
 11
247.5930676374091
 21
154.168264291724
 31
0.0
  0
LINE
  5
A15
330
BB4
100
AcDbEntity
  8
0
100
AcDbLine
 10
176.878063173564
 20
20.9101143374566
 30
0.0
 11
177.0203513815718
 21
21.37909798766412
 31
0.0
  0
LINE
  5
A16
330
BB4
100
AcDbEntity
  8
0
100
AcDbLine
 10
247.4680195050157
 20
40.66147345815169
 30
0.0
 11
247.6103077130236
 21
41.13045710835921
 31
0.0
  0
LINE
  5
874
330
BB4
100
AcDbEntity
  8
0
100
AcDbLine
 10
177.0031113059574
 20
134.416905171029
 30
0.0
 11
177.0511383445316
 21
134.9046237531823
 31
0.0
  0
LINE
  5
875
330
BB4
100
AcDbEntity
  8
0
100
AcDbLine
 10
247.5930676374091
 20
154.168264291724
 30
0.0
 11
247.6410946759833
 21
154.6559828738773
 31
0.0
  0
LINE
  5
A17
330
BB4
100
AcDbEntity
  8
0
100
AcDbLine
 10
177.0203513815718
 20
21.37909798766412
 30
0.0
 11
177.068378420146
 21
21.86681656981744
 31
0.0
  0
LINE
  5
A18
330
BB4
100
AcDbEntity
  8
0
100
AcDbLine
 10
247.6103077130236
 20
41.13045710835921
 30
0.0
 11
247.6583347515978
 21
41.61817569051253
 31
0.0
  0
LINE
  5
876
330
BB4
100
AcDbEntity
  8
0
100
AcDbLine
 10
177.0511383445316
 20
134.9046237531823
 30
0.0
 11
177.0031113059574
 21
135.3923566404503
 31
0.0
  0
LINE
  5
877
330
BB4
100
AcDbEntity
  8
0
100
AcDbLine
 10
247.6410946759833
 20
154.6559828738773
 30
0.0
 11
247.5930676374091
 21
155.1437157611454
 31
0.0
  0
LINE
  5
A19
330
BB4
100
AcDbEntity
  8
0
100
AcDbLine
 10
177.068378420146
 20
21.86681656981744
 30
0.0
 11
177.0203513815718
 21
22.35454945708551
 31
0.0
  0
LINE
  5
A1A
330
BB4
100
AcDbEntity
  8
0
100
AcDbLine
 10
247.6583347515978
 20
41.61817569051253
 30
0.0
 11
247.6103077130236
 21
42.1059085777806
 31
0.0
  0
LINE
  5
878
330
BB4
100
AcDbEntity
  8
0
100
AcDbLine
 10
177.0031113059574
 20
135.3923566404503
 30
0.0
 11
176.8608230979495
 21
135.8613307539147
 31
0.0
  0
LINE
  5
879
330
BB4
100
AcDbEntity
  8
0
100
AcDbLine
 10
247.5930676374091
 20
155.1437157611454
 30
0.0
 11
247.4507794294013
 21
155.6126898746098
 31
0.0
  0
LINE
  5
A1B
330
BB4
100
AcDbEntity
  8
0
100
AcDbLine
 10
177.0203513815718
 20
22.35454945708551
 30
0.0
 11
176.878063173564
 21
22.82352357054987
 31
0.0
  0
LINE
  5
A1C
330
BB4
100
AcDbEntity
  8
0
100
AcDbLine
 10
247.6103077130236
 20
42.1059085777806
 30
0.0
 11
247.4680195050157
 21
42.57488269124495
 31
0.0
  0
LINE
  5
87A
330
BB4
100
AcDbEntity
  8
0
100
AcDbLine
 10
176.8608230979495
 20
135.8613307539147
 30
0.0
 11
176.7065567405277
 21
136.1500079694909
 31
0.0
  0
LINE
  5
87B
330
BB4
100
AcDbEntity
  8
0
100
AcDbLine
 10
247.4507794294013
 20
155.6126898746098
 30
0.0
 11
247.2965130719794
 21
155.9013670901859
 31
0.0
  0
LINE
  5
A1D
330
BB4
100
AcDbEntity
  8
0
100
AcDbLine
 10
176.878063173564
 20
22.82352357054987
 30
0.0
 11
176.7237968161421
 21
23.11220078612604
 31
0.0
  0
LINE
  5
A1E
330
BB4
100
AcDbEntity
  8
0
100
AcDbLine
 10
247.4680195050157
 20
42.57488269124495
 30
0.0
 11
247.3137531475939
 21
42.86355990682112
 31
0.0
  0
LINE
  5
87C
330
BB4
100
AcDbEntity
  8
0
100
AcDbLine
 10
176.7065567405277
 20
136.1500079694909
 30
0.0
 11
176.6298050315433
 21
136.2935550275963
 31
0.0
  0
LINE
  5
87D
330
BB4
100
AcDbEntity
  8
0
100
AcDbLine
 10
247.2965130719794
 20
155.9013670901859
 30
0.0
 11
247.2197613629951
 21
156.0449141482914
 31
0.0
  0
LINE
  5
A1F
330
BB4
100
AcDbEntity
  8
0
100
AcDbLine
 10
176.7237968161421
 20
23.11220078612604
 30
0.0
 11
176.6470451071577
 21
23.25574784423151
 31
0.0
  0
LINE
  5
A20
330
BB4
100
AcDbEntity
  8
0
100
AcDbLine
 10
247.3137531475939
 20
42.86355990682112
 30
0.0
 11
247.2370014386095
 21
43.00710696492659
 31
0.0
  0
LINE
  5
87E
330
BB4
100
AcDbEntity
  8
0
100
AcDbLine
 10
176.6298050315433
 20
136.2935550275963
 30
0.0
 11
176.3189072043949
 21
136.6723973814171
 31
0.0
  0
LINE
  5
87F
330
BB4
100
AcDbEntity
  8
0
100
AcDbLine
 10
247.2197613629951
 20
156.0449141482914
 30
0.0
 11
246.9088635358466
 21
156.4237565021122
 31
0.0
  0
LINE
  5
A21
330
BB4
100
AcDbEntity
  8
0
100
AcDbLine
 10
176.6470451071577
 20
23.25574784423151
 30
0.0
 11
176.3361472800093
 21
23.63459019805231
 31
0.0
  0
LINE
  5
A22
330
BB4
100
AcDbEntity
  8
0
100
AcDbLine
 10
247.2370014386095
 20
43.00710696492659
 30
0.0
 11
246.9261036114611
 21
43.38594931874739
 31
0.0
  0
LINE
  5
880
330
BB4
100
AcDbEntity
  8
0
100
AcDbLine
 10
176.3189072043949
 20
136.6723973814171
 30
0.0
 11
175.940031471973
 21
136.9832999769372
 31
0.0
  0
LINE
  5
881
330
BB4
100
AcDbEntity
  8
0
100
AcDbLine
 10
246.9088635358466
 20
156.4237565021122
 30
0.0
 11
246.5299878034247
 21
156.7346590976322
 31
0.0
  0
LINE
  5
A23
330
BB4
100
AcDbEntity
  8
0
100
AcDbLine
 10
176.3361472800093
 20
23.63459019805231
 30
0.0
 11
175.9572715475874
 21
23.94549279357233
 31
0.0
  0
LINE
  5
A24
330
BB4
100
AcDbEntity
  8
0
100
AcDbLine
 10
246.9261036114611
 20
43.38594931874739
 30
0.0
 11
246.5472278790392
 21
43.69685191426741
 31
0.0
  0
LINE
  5
882
330
BB4
100
AcDbEntity
  8
0
100
AcDbLine
 10
175.940031471973
 20
136.9832999769372
 30
0.0
 11
175.5078644187503
 21
137.2143275800866
 31
0.0
  0
LINE
  5
883
330
BB4
100
AcDbEntity
  8
0
100
AcDbLine
 10
246.5299878034247
 20
156.7346590976322
 30
0.0
 11
246.0978207502021
 21
156.9656867007816
 31
0.0
  0
LINE
  5
A25
330
BB4
100
AcDbEntity
  8
0
100
AcDbLine
 10
175.9572715475874
 20
23.94549279357233
 30
0.0
 11
175.5251044943648
 21
24.17652039672174
 31
0.0
  0
LINE
  5
A26
330
BB4
100
AcDbEntity
  8
0
100
AcDbLine
 10
246.5472278790392
 20
43.69685191426741
 30
0.0
 11
246.1150608258165
 21
43.92787951741683
 31
0.0
  0
LINE
  5
884
330
BB4
100
AcDbEntity
  8
0
100
AcDbLine
 10
175.5078644187503
 20
137.2143275800866
 30
0.0
 11
175.2567047507816
 21
137.2905070844811
 31
0.0
  0
LINE
  5
885
330
BB4
100
AcDbEntity
  8
0
100
AcDbLine
 10
246.0978207502021
 20
156.9656867007816
 30
0.0
 11
245.8466610822333
 21
157.0418662051762
 31
0.0
  0
LINE
  5
A27
330
BB4
100
AcDbEntity
  8
0
100
AcDbLine
 10
175.5251044943648
 20
24.17652039672174
 30
0.0
 11
175.273944826396
 21
24.25269990111627
 31
0.0
  0
LINE
  5
A28
330
BB4
100
AcDbEntity
  8
0
100
AcDbLine
 10
246.1150608258165
 20
43.92787951741683
 30
0.0
 11
245.8639011578478
 21
44.00405902181136
 31
0.0
  0
LINE
  5
886
330
BB4
100
AcDbEntity
  8
0
100
AcDbLine
 10
175.2567047507816
 20
137.2905070844811
 30
0.0
 11
175.0388092429691
 21
137.3565919462365
 31
0.0
  0
LINE
  5
887
330
BB4
100
AcDbEntity
  8
0
100
AcDbLine
 10
245.8466610822333
 20
157.0418662051762
 30
0.0
 11
245.6287655744208
 21
157.1079510669315
 31
0.0
  0
LINE
  5
A29
330
BB4
100
AcDbEntity
  8
0
100
AcDbLine
 10
175.273944826396
 20
24.25269990111627
 30
0.0
 11
175.0560493185835
 21
24.31878476287164
 31
0.0
  0
LINE
  5
A2A
330
BB4
100
AcDbEntity
  8
0
100
AcDbLine
 10
245.8639011578478
 20
44.00405902181136
 30
0.0
 11
245.6460056500353
 21
44.07014388356673
 31
0.0
  0
LINE
  5
888
330
BB4
100
AcDbEntity
  8
0
100
AcDbLine
 10
175.0388092429691
 20
137.3565919462365
 30
0.0
 11
174.5511001975589
 21
137.4046285215539
 31
0.0
  0
LINE
  5
889
330
BB4
100
AcDbEntity
  8
0
100
AcDbLine
 10
245.6287655744208
 20
157.1079510669315
 30
0.0
 11
245.1410565290107
 21
157.1559876422489
 31
0.0
  0
LINE
  5
A2B
330
BB4
100
AcDbEntity
  8
0
100
AcDbLine
 10
175.0560493185835
 20
24.31878476287164
 30
0.0
 11
174.5683402731734
 21
24.36682133818903
 31
0.0
  0
LINE
  5
A2C
330
BB4
100
AcDbEntity
  8
0
100
AcDbLine
 10
245.6460056500353
 20
44.07014388356673
 30
0.0
 11
245.1582966046251
 21
44.11818045888411
 31
0.0
  0
LINE
  5
88A
330
BB4
100
AcDbEntity
  8
0
100
AcDbLine
 10
174.5511001975589
 20
137.4046285215539
 30
0.0
 11
174.0634292991214
 21
137.3565919462365
 31
0.0
  0
LINE
  5
88B
330
BB4
100
AcDbEntity
  8
0
100
AcDbLine
 10
245.1410565290107
 20
157.1559876422489
 30
0.0
 11
244.6533856305732
 21
157.1079510669315
 31
0.0
  0
LINE
  5
A2D
330
BB4
100
AcDbEntity
  8
0
100
AcDbLine
 10
174.5683402731734
 20
24.36682133818903
 30
0.0
 11
174.0806693747359
 21
24.31878476287164
 31
0.0
  0
LINE
  5
A2E
330
BB4
100
AcDbEntity
  8
0
100
AcDbLine
 10
245.1582966046251
 20
44.11818045888411
 30
0.0
 11
244.6706257061876
 21
44.07014388356673
 31
0.0
  0
LINE
  5
88C
330
BB4
100
AcDbEntity
  8
0
100
AcDbLine
 10
174.0634292991214
 20
137.3565919462365
 30
0.0
 11
173.5944504172855
 21
137.2143275800866
 31
0.0
  0
LINE
  5
88D
330
BB4
100
AcDbEntity
  8
0
100
AcDbLine
 10
244.6533856305732
 20
157.1079510669315
 30
0.0
 11
244.1844067487372
 21
156.9656867007816
 31
0.0
  0
LINE
  5
A2F
330
BB4
100
AcDbEntity
  8
0
100
AcDbLine
 10
174.0806693747359
 20
24.31878476287164
 30
0.0
 11
173.6116904928999
 21
24.17652039672174
 31
0.0
  0
LINE
  5
A30
330
BB4
100
AcDbEntity
  8
0
100
AcDbLine
 10
244.6706257061876
 20
44.07014388356673
 30
0.0
 11
244.2016468243517
 21
43.92787951741683
 31
0.0
  0
LINE
  5
88E
330
BB4
100
AcDbEntity
  8
0
100
AcDbLine
 10
173.5944504172855
 20
137.2143275800866
 30
0.0
 11
173.1621689231449
 21
136.9833047453087
 31
0.0
  0
LINE
  5
88F
330
BB4
100
AcDbEntity
  8
0
100
AcDbLine
 10
244.1844067487372
 20
156.9656867007816
 30
0.0
 11
243.7521252545966
 21
156.7346638660038
 31
0.0
  0
LINE
  5
A31
330
BB4
100
AcDbEntity
  8
0
100
AcDbLine
 10
173.6116904928999
 20
24.17652039672174
 30
0.0
 11
173.1794089987593
 21
23.94549756194391
 31
0.0
  0
LINE
  5
A32
330
BB4
100
AcDbEntity
  8
0
100
AcDbLine
 10
244.2016468243517
 20
43.92787951741683
 30
0.0
 11
243.7693653302111
 21
43.69685668263899
 31
0.0
  0
LINE
  5
890
330
BB4
100
AcDbEntity
  8
0
100
AcDbLine
 10
173.1621689231449
 20
136.9833047453087
 30
0.0
 11
172.7833694846683
 21
136.6723973814171
 31
0.0
  0
LINE
  5
891
330
BB4
100
AcDbEntity
  8
0
100
AcDbLine
 10
243.7521252545966
 20
156.7346638660038
 30
0.0
 11
243.3733258161201
 21
156.4237565021122
 31
0.0
  0
LINE
  5
A33
330
BB4
100
AcDbEntity
  8
0
100
AcDbLine
 10
173.1794089987593
 20
23.94549756194391
 30
0.0
 11
172.8006095602827
 21
23.63459019805231
 31
0.0
  0
LINE
  5
A34
330
BB4
100
AcDbEntity
  8
0
100
AcDbLine
 10
243.7693653302111
 20
43.69685668263899
 30
0.0
 11
243.3905658917345
 21
43.38594931874739
 31
0.0
  0
LINE
  5
892
330
BB4
100
AcDbEntity
  8
0
100
AcDbLine
 10
172.7833694846683
 20
136.6723973814171
 30
0.0
 11
172.4724335105472
 21
136.2935550275963
 31
0.0
  0
LINE
  5
893
330
BB4
100
AcDbEntity
  8
0
100
AcDbLine
 10
243.3733258161201
 20
156.4237565021122
 30
0.0
 11
243.062389841999
 21
156.0449141482914
 31
0.0
  0
LINE
  5
A35
330
BB4
100
AcDbEntity
  8
0
100
AcDbLine
 10
172.8006095602827
 20
23.63459019805231
 30
0.0
 11
172.4896735861616
 21
23.25574784423151
 31
0.0
  0
LINE
  5
A36
330
BB4
100
AcDbEntity
  8
0
100
AcDbLine
 10
243.3905658917345
 20
43.38594931874739
 30
0.0
 11
243.0796299176134
 21
43.00710696492659
 31
0.0
  0
LINE
  5
894
330
BB4
100
AcDbEntity
  8
0
100
AcDbLine
 10
172.4724335105472
 20
136.2935550275963
 30
0.0
 11
172.241415444141
 21
135.8613402906579
 31
0.0
  0
LINE
  5
895
330
BB4
100
AcDbEntity
  8
0
100
AcDbLine
 10
243.062389841999
 20
156.0449141482914
 30
0.0
 11
242.8313717755927
 21
155.6126994113529
 31
0.0
  0
LINE
  5
A37
330
BB4
100
AcDbEntity
  8
0
100
AcDbLine
 10
172.4896735861616
 20
23.25574784423151
 30
0.0
 11
172.2586555197554
 21
22.82353310729303
 31
0.0
  0
LINE
  5
A38
330
BB4
100
AcDbEntity
  8
0
100
AcDbLine
 10
243.0796299176134
 20
43.00710696492659
 30
0.0
 11
242.8486118512072
 21
42.57489222798812
 31
0.0
  0
LINE
  5
896
330
BB4
100
AcDbEntity
  8
0
100
AcDbLine
 10
119.1283688459052
 20
155.2998656253422
 30
0.0
 11
118.9347348127021
 21
155.6288022021855
 31
0.0
  0
LINE
  5
A39
330
BB4
100
AcDbEntity
  8
0
100
AcDbLine
 10
119.1456089215197
 20
42.26205844197737
 30
0.0
 11
118.9519748883165
 21
42.59099501882064
 31
0.0
  0
LINE
  5
897
330
BB4
100
AcDbEntity
  8
0
100
AcDbLine
 10
118.9347348127021
 20
155.6288022021855
 30
0.0
 11
118.743313303913
 21
155.9551447848881
 31
0.0
  0
LINE
  5
A3A
330
BB4
100
AcDbEntity
  8
0
100
AcDbLine
 10
118.9519748883165
 20
42.59099501882064
 30
0.0
 11
118.7605533795275
 21
42.91733760152327
 31
0.0
  0
LINE
  5
898
330
BB4
100
AcDbEntity
  8
0
100
AcDbLine
 10
118.743313303913
 20
155.9551447848881
 30
0.0
 11
118.6827740583076
 21
156.1979264239872
 31
0.0
  0
LINE
  5
A3B
330
BB4
100
AcDbEntity
  8
0
100
AcDbLine
 10
118.7605533795275
 20
42.91733760152327
 30
0.0
 11
118.700014133922
 21
43.16011924062239
 31
0.0
  0
LINE
  5
899
330
BB4
100
AcDbEntity
  8
0
100
AcDbLine
 10
118.6827740583076
 20
156.1979264239872
 30
0.0
 11
118.6228451642646
 21
156.4387530307377
 31
0.0
  0
LINE
  5
A3C
330
BB4
100
AcDbEntity
  8
0
100
AcDbLine
 10
118.700014133922
 20
43.16011924062239
 30
0.0
 11
118.640085239879
 21
43.40094584737288
 31
0.0
  0
LINE
  5
89A
330
BB4
100
AcDbEntity
  8
0
100
AcDbLine
 10
118.6228451642646
 20
156.4387530307377
 30
0.0
 11
118.6238751325263
 21
156.6869276980961
 31
0.0
  0
LINE
  5
A3D
330
BB4
100
AcDbEntity
  8
0
100
AcDbLine
 10
118.640085239879
 20
43.40094584737288
 30
0.0
 11
118.6411152081407
 21
43.64912051473128
 31
0.0
  0
LINE
  5
89B
330
BB4
100
AcDbEntity
  8
0
100
AcDbLine
 10
118.6238751325263
 20
156.6869276980961
 30
0.0
 11
118.6249813947333
 21
156.9371479968632
 31
0.0
  0
LINE
  5
A3E
330
BB4
100
AcDbEntity
  8
0
100
AcDbLine
 10
118.6411152081407
 20
43.64912051473128
 30
0.0
 11
118.6422214703478
 21
43.89934081349837
 31
0.0
  0
LINE
  5
89C
330
BB4
100
AcDbEntity
  8
0
100
AcDbLine
 10
118.6249813947333
 20
156.9371479968632
 30
0.0
 11
118.7344250592841
 21
157.2996157626713
 31
0.0
  0
LINE
  5
A3F
330
BB4
100
AcDbEntity
  8
0
100
AcDbLine
 10
118.6422214703478
 20
43.89934081349837
 30
0.0
 11
118.7516651348986
 21
44.26180857930648
 31
0.0
  0
LINE
  5
89D
330
BB4
100
AcDbEntity
  8
0
100
AcDbLine
 10
118.7344250592841
 20
157.2996157626713
 30
0.0
 11
118.8453946027412
 21
157.6651257495487
 31
0.0
  0
LINE
  5
A40
330
BB4
100
AcDbEntity
  8
0
100
AcDbLine
 10
118.7516651348986
 20
44.26180857930648
 30
0.0
 11
118.8626346783556
 21
44.62731856618392
 31
0.0
  0
LINE
  5
89E
330
BB4
100
AcDbEntity
  8
0
100
AcDbLine
 10
118.8453946027412
 20
157.6651257495487
 30
0.0
 11
119.2164120587958
 21
158.1858748416508
 31
0.0
  0
LINE
  5
A41
330
BB4
100
AcDbEntity
  8
0
100
AcDbLine
 10
118.8626346783556
 20
44.62731856618392
 30
0.0
 11
119.2336521344103
 21
45.14806765828597
 31
0.0
  0
LINE
  5
89F
330
BB4
100
AcDbEntity
  8
0
100
AcDbLine
 10
119.2164120587958
 20
158.1858748416508
 30
0.0
 11
119.5921978864326
 21
158.7110918979252
 31
0.0
  0
LINE
  5
A42
330
BB4
100
AcDbEntity
  8
0
100
AcDbLine
 10
119.2336521344103
 20
45.14806765828597
 30
0.0
 11
119.609437962047
 21
45.67328471456038
 31
0.0
  0
LINE
  5
8A0
330
BB4
100
AcDbEntity
  8
0
100
AcDbLine
 10
119.5921978864326
 20
158.7110918979252
 30
0.0
 11
120.5127224836005
 21
159.4375246982182
 31
0.0
  0
LINE
  5
A43
330
BB4
100
AcDbEntity
  8
0
100
AcDbLine
 10
119.609437962047
 20
45.67328471456038
 30
0.0
 11
120.529962559215
 21
46.39971751485335
 31
0.0
  0
LINE
  5
8A1
330
BB4
100
AcDbEntity
  8
0
100
AcDbLine
 10
120.5127224836005
 20
159.4375246982182
 30
0.0
 11
121.444843760456
 21
160.1703685741032
 31
0.0
  0
LINE
  5
A44
330
BB4
100
AcDbEntity
  8
0
100
AcDbLine
 10
120.529962559215
 20
46.39971751485335
 30
0.0
 11
121.4620838360704
 21
47.13256139073836
 31
0.0
  0
LINE
  5
8A2
330
BB4
100
AcDbEntity
  8
0
100
AcDbLine
 10
121.444843760456
 20
160.1703685741032
 30
0.0
 11
123.3858380231513
 21
161.1287492732609
 31
0.0
  0
LINE
  5
A45
330
BB4
100
AcDbEntity
  8
0
100
AcDbLine
 10
121.4620838360704
 20
47.13256139073836
 30
0.0
 11
123.4030780987657
 21
48.09094208989607
 31
0.0
  0
LINE
  5
8A3
330
BB4
100
AcDbEntity
  8
0
100
AcDbLine
 10
123.3858380231513
 20
161.1287492732609
 30
0.0
 11
125.350979319538
 21
162.0958537082279
 31
0.0
  0
LINE
  5
A46
330
BB4
100
AcDbEntity
  8
0
100
AcDbLine
 10
123.4030780987657
 20
48.09094208989607
 30
0.0
 11
125.3682193951525
 21
49.05804652486312
 31
0.0
  0
LINE
  5
8A4
330
BB4
100
AcDbEntity
  8
0
100
AcDbLine
 10
125.350979319538
 20
162.0958537082279
 30
0.0
 11
128.9462933454169
 21
163.2311672191227
 31
0.0
  0
LINE
  5
A47
330
BB4
100
AcDbEntity
  8
0
100
AcDbLine
 10
125.3682193951525
 20
49.05804652486312
 30
0.0
 11
128.9635334210314
 21
50.19336003575789
 31
0.0
  0
LINE
  5
8A5
330
BB4
100
AcDbEntity
  8
0
100
AcDbLine
 10
128.9462933454169
 20
163.2311672191227
 30
0.0
 11
132.5859341535224
 21
164.3771165828312
 31
0.0
  0
LINE
  5
A48
330
BB4
100
AcDbEntity
  8
0
100
AcDbLine
 10
128.9635334210314
 20
50.19336003575789
 30
0.0
 11
132.6031742291368
 21
51.33930939946639
 31
0.0
  0
LINE
  5
8A6
330
BB4
100
AcDbEntity
  8
0
100
AcDbLine
 10
132.5859341535224
 20
164.3771165828312
 30
0.0
 11
138.4517178449287
 21
165.4630106906498
 31
0.0
  0
LINE
  5
A49
330
BB4
100
AcDbEntity
  8
0
100
AcDbLine
 10
132.6031742291368
 20
51.33930939946639
 30
0.0
 11
138.4689579205431
 21
52.42520350728499
 31
0.0
  0
LINE
  5
8A7
330
BB4
100
AcDbEntity
  8
0
100
AcDbLine
 10
138.4517178449287
 20
165.4630106906498
 30
0.0
 11
144.3894085797919
 21
166.559302232703
 31
0.0
  0
LINE
  5
A4A
330
BB4
100
AcDbEntity
  8
0
100
AcDbLine
 10
138.4689579205431
 20
52.42520350728499
 30
0.0
 11
144.4066486554064
 21
53.52149504933821
 31
0.0
  0
LINE
  5
8A8
330
BB4
100
AcDbEntity
  8
0
100
AcDbLine
 10
144.3894085797919
 20
166.559302232703
 30
0.0
 11
152.7658352765693
 21
167.1657175044621
 31
0.0
  0
LINE
  5
A4B
330
BB4
100
AcDbEntity
  8
0
100
AcDbLine
 10
144.4066486554064
 20
53.52149504933821
 30
0.0
 11
152.7830753521837
 21
54.12791032109725
 31
0.0
  0
LINE
  5
8A9
330
BB4
100
AcDbEntity
  8
0
100
AcDbLine
 10
152.7658352765693
 20
167.1657175044621
 30
0.0
 11
161.2446865949287
 21
167.7778738956059
 31
0.0
  0
LINE
  5
A4C
330
BB4
100
AcDbEntity
  8
0
100
AcDbLine
 10
152.7830753521837
 20
54.12791032109725
 30
0.0
 11
161.2619266705431
 21
54.74006671224105
 31
0.0
  0
LINE
  5
8AA
330
BB4
100
AcDbEntity
  8
0
100
AcDbLine
 10
161.2446865949287
 20
167.7778738956059
 30
0.0
 11
171.7112622174872
 21
167.4744385699833
 31
0.0
  0
LINE
  5
A4D
330
BB4
100
AcDbEntity
  8
0
100
AcDbLine
 10
161.2619266705431
 20
54.74006671224105
 30
0.0
 11
171.7285022931017
 21
54.43663138661849
 31
0.0
  0
LINE
  5
8AB
330
BB4
100
AcDbEntity
  8
0
100
AcDbLine
 10
171.7112622174872
 20
167.4744385699833
 30
0.0
 11
182.0511898908271
 21
167.1745580653752
 31
0.0
  0
LINE
  5
A4E
330
BB4
100
AcDbEntity
  8
0
100
AcDbLine
 10
171.7285022931017
 20
54.43663138661849
 30
0.0
 11
182.0684299664415
 21
54.13675088201033
 31
0.0
  0
LINE
  5
8AC
330
BB4
100
AcDbEntity
  8
0
100
AcDbLine
 10
182.0511898908271
 20
167.1745580653752
 30
0.0
 11
193.3597454938544
 21
166.1766118030155
 31
0.0
  0
LINE
  5
A4F
330
BB4
100
AcDbEntity
  8
0
100
AcDbLine
 10
182.0684299664415
 20
54.13675088201033
 30
0.0
 11
193.3769855694689
 21
53.13880461965071
 31
0.0
  0
LINE
  5
8AD
330
BB4
100
AcDbEntity
  8
0
100
AcDbLine
 10
193.3597454938544
 20
166.1766118030155
 30
0.0
 11
204.530895701374
 21
165.1889389972294
 31
0.0
  0
LINE
  5
A50
330
BB4
100
AcDbEntity
  8
0
100
AcDbLine
 10
193.3769855694689
 20
53.13880461965071
 30
0.0
 11
204.5481357769884
 21
52.15113181386458
 31
0.0
  0
LINE
  5
8AE
330
BB4
100
AcDbEntity
  8
0
100
AcDbLine
 10
204.530895701374
 20
165.1889389972294
 30
0.0
 11
215.5343899640693
 21
163.782476804694
 31
0.0
  0
LINE
  5
A51
330
BB4
100
AcDbEntity
  8
0
100
AcDbLine
 10
204.5481357769884
 20
52.15113181386458
 30
0.0
 11
215.5516300396837
 21
50.74466962132918
 31
0.0
  0
LINE
  5
8AF
330
BB4
100
AcDbEntity
  8
0
100
AcDbLine
 10
215.5343899640693
 20
163.782476804694
 30
0.0
 11
226.4039883527412
 21
162.390179059943
 31
0.0
  0
LINE
  5
A52
330
BB4
100
AcDbEntity
  8
0
100
AcDbLine
 10
215.5516300396837
 20
50.74466962132918
 30
0.0
 11
226.4212284283556
 21
49.3523718765782
 31
0.0
  0
LINE
  5
8B0
330
BB4
100
AcDbEntity
  8
0
100
AcDbLine
 10
226.4039883527412
 20
162.390179059943
 30
0.0
 11
236.1031231794013
 21
160.854865930518
 31
0.0
  0
LINE
  5
A53
330
BB4
100
AcDbEntity
  8
0
100
AcDbLine
 10
226.4212284283556
 20
49.3523718765782
 30
0.0
 11
236.1203632550157
 21
47.81705874715315
 31
0.0
  0
LINE
  5
8B1
330
BB4
100
AcDbEntity
  8
0
100
AcDbLine
 10
236.1031231794013
 20
160.854865930518
 30
0.0
 11
245.6841549787177
 21
159.3349665622318
 31
0.0
  0
LINE
  5
A54
330
BB4
100
AcDbEntity
  8
0
100
AcDbLine
 10
236.1203632550157
 20
47.81705874715315
 30
0.0
 11
245.7013950543322
 21
46.29715937886702
 31
0.0
  0
LINE
  5
8B2
330
BB4
100
AcDbEntity
  8
0
100
AcDbLine
 10
245.6841549787177
 20
159.3349665622318
 30
0.0
 11
248.4528241071357
 21
158.8302201251591
 31
0.0
  0
LINE
  5
A55
330
BB4
100
AcDbEntity
  8
0
100
AcDbLine
 10
245.7013950543322
 20
46.29715937886702
 30
0.0
 11
248.4700641827501
 21
45.79241294179427
 31
0.0
  0
LINE
  5
8B3
330
BB4
100
AcDbEntity
  8
0
100
AcDbLine
 10
248.4528241071357
 20
158.8302201251591
 30
0.0
 11
253.5830578717841
 21
157.8949374179447
 31
0.0
  0
LINE
  5
A56
330
BB4
100
AcDbEntity
  8
0
100
AcDbLine
 10
248.4700641827501
 20
45.79241294179427
 30
0.0
 11
253.6002979473986
 21
44.85713023457991
 31
0.0
  0
LINE
  5
8B4
330
BB4
100
AcDbEntity
  8
0
100
AcDbLine
 10
253.5830578717841
 20
157.8949374179447
 30
0.0
 11
261.3857159528388
 21
156.4693659762943
 31
0.0
  0
LINE
  5
A57
330
BB4
100
AcDbEntity
  8
0
100
AcDbLine
 10
253.6002979473986
 20
44.85713023457991
 30
0.0
 11
261.4029560284532
 21
43.43155879292952
 31
0.0
  0
LINE
  5
8B5
330
BB4
100
AcDbEntity
  8
0
100
AcDbLine
 10
261.3857159528388
 20
156.4693659762943
 30
0.0
 11
267.4423489484442
 21
155.2490681628788
 31
0.0
  0
LINE
  5
A58
330
BB4
100
AcDbEntity
  8
0
100
AcDbLine
 10
261.4029560284532
 20
43.43155879292952
 30
0.0
 11
267.4595890240587
 21
42.21126097951399
 31
0.0
  0
LINE
  5
8B6
330
BB4
100
AcDbEntity
  8
0
100
AcDbLine
 10
267.4423489484442
 20
155.2490681628788
 30
0.0
 11
273.4250531110419
 21
154.0410298328007
 31
0.0
  0
LINE
  5
A59
330
BB4
100
AcDbEntity
  8
0
100
AcDbLine
 10
267.4595890240587
 20
42.21126097951399
 30
0.0
 11
273.4422931866563
 21
41.00322264943587
 31
0.0
  0
LINE
  5
8B7
330
BB4
100
AcDbEntity
  8
0
100
AcDbLine
 10
273.4250531110419
 20
154.0410298328007
 30
0.0
 11
277.8687558087958
 21
153.0785244922245
 31
0.0
  0
LINE
  5
A5A
330
BB4
100
AcDbEntity
  8
0
100
AcDbLine
 10
273.4422931866563
 20
41.00322264943587
 30
0.0
 11
277.8859958844102
 21
40.0407173088597
 31
0.0
  0
LINE
  5
8B8
330
BB4
100
AcDbEntity
  8
0
100
AcDbLine
 10
277.8687558087958
 20
153.0785244922245
 30
0.0
 11
282.2582135114325
 21
152.1256798724735
 31
0.0
  0
LINE
  5
A5B
330
BB4
100
AcDbEntity
  8
0
100
AcDbLine
 10
277.8859958844102
 20
40.0407173088597
 30
0.0
 11
282.275453587047
 21
39.08787268910872
 31
0.0
  0
LINE
  5
8B9
330
BB4
100
AcDbEntity
  8
0
100
AcDbLine
 10
282.2582135114325
 20
152.1256798724735
 30
0.0
 11
285.418117991413
 21
151.4046782474125
 31
0.0
  0
LINE
  5
A5C
330
BB4
100
AcDbEntity
  8
0
100
AcDbLine
 10
282.275453587047
 20
39.08787268910872
 30
0.0
 11
285.4353580670274
 21
38.36687106404769
 31
0.0
  0
LINE
  5
8BA
330
BB4
100
AcDbEntity
  8
0
100
AcDbLine
 10
285.418117991413
 20
151.4046782474125
 30
0.0
 11
288.5394177350653
 21
150.690915010413
 31
0.0
  0
LINE
  5
A5D
330
BB4
100
AcDbEntity
  8
0
100
AcDbLine
 10
285.4353580670274
 20
38.36687106404769
 30
0.0
 11
288.5566578106798
 21
37.65310782704817
 31
0.0
  0
LINE
  5
8BB
330
BB4
100
AcDbEntity
  8
0
100
AcDbLine
 10
288.5394177350653
 20
150.690915010413
 30
0.0
 11
288.5343441877021
 21
150.6444567660893
 31
0.0
  0
LINE
  5
A5E
330
BB4
100
AcDbEntity
  8
0
100
AcDbLine
 10
288.5566578106798
 20
37.65310782704817
 30
0.0
 11
288.5515842633165
 21
37.60664958272444
 31
0.0
  0
LINE
  5
8BC
330
BB4
100
AcDbEntity
  8
0
100
AcDbLine
 10
288.5343441877021
 20
150.6444567660893
 30
0.0
 11
288.5293469342841
 21
150.5983752231205
 31
0.0
  0
LINE
  5
A5F
330
BB4
100
AcDbEntity
  8
0
100
AcDbLine
 10
288.5515842633165
 20
37.60664958272444
 30
0.0
 11
288.5465870098985
 21
37.56056803975569
 31
0.0
  0
LINE
  5
8BD
330
BB4
100
AcDbEntity
  8
0
100
AcDbLine
 10
288.5293469342841
 20
150.5983752231205
 30
0.0
 11
288.5242733869208
 21
150.5519169787968
 31
0.0
  0
LINE
  5
A60
330
BB4
100
AcDbEntity
  8
0
100
AcDbLine
 10
288.5465870098985
 20
37.56056803975569
 30
0.0
 11
288.5415134625352
 21
37.51410979543196
 31
0.0
  0
LINE
  5
8BE
330
BB4
100
AcDbEntity
  8
0
100
AcDbLine
 10
288.5242733869208
 20
150.5519169787968
 30
0.0
 11
288.5192761335028
 21
150.5058402041996
 31
0.0
  0
LINE
  5
A61
330
BB4
100
AcDbEntity
  8
0
100
AcDbLine
 10
288.5415134625352
 20
37.51410979543196
 30
0.0
 11
288.5365162091173
 21
37.4680330208348
 31
0.0
  0
LINE
  5
8BF
330
BB4
100
AcDbEntity
  8
0
100
AcDbLine
 10
288.5192761335028
 20
150.5058402041996
 30
0.0
 11
288.5142788800849
 21
150.4597586612309
 31
0.0
  0
LINE
  5
A62
330
BB4
100
AcDbEntity
  8
0
100
AcDbLine
 10
288.5365162091173
 20
37.4680330208348
 30
0.0
 11
288.5315189556993
 21
37.42195147786605
 31
0.0
  0
LINE
  5
8C0
330
BB4
100
AcDbEntity
  8
0
100
AcDbLine
 10
288.5142788800849
 20
150.4597586612309
 30
0.0
 11
288.5092053327216
 21
150.4133004169071
 31
0.0
  0
LINE
  5
A63
330
BB4
100
AcDbEntity
  8
0
100
AcDbLine
 10
288.5315189556993
 20
37.42195147786605
 30
0.0
 11
288.526445408336
 21
37.37549323354231
 31
0.0
  0
LINE
  5
8C1
330
BB4
100
AcDbEntity
  8
0
100
AcDbLine
 10
288.5092053327216
 20
150.4133004169071
 30
0.0
 11
288.5042080793036
 21
150.36722364231
 31
0.0
  0
LINE
  5
A64
330
BB4
100
AcDbEntity
  8
0
100
AcDbLine
 10
288.526445408336
 20
37.37549323354231
 30
0.0
 11
288.5214481549181
 21
37.32941645894515
 31
0.0
  0
LINE
  5
8C2
330
BB4
100
AcDbEntity
  8
0
100
AcDbLine
 10
288.5042080793036
 20
150.36722364231
 30
0.0
 11
288.499172678913
 21
150.3207653979862
 31
0.0
  0
LINE
  5
A65
330
BB4
100
AcDbEntity
  8
0
100
AcDbLine
 10
288.5214481549181
 20
37.32941645894515
 30
0.0
 11
288.5164127545274
 21
37.28295821462142
 31
0.0
  0
LINE
  5
8C3
330
BB4
100
AcDbEntity
  8
0
100
AcDbLine
 10
288.499172678913
 20
150.3207653979862
 30
0.0
 11
285.2997860822333
 21
150.2813357333744
 31
0.0
  0
LINE
  5
A66
330
BB4
100
AcDbEntity
  8
0
100
AcDbLine
 10
288.5164127545274
 20
37.28295821462142
 30
0.0
 11
285.3170261578477
 21
37.2435285500096
 31
0.0
  0
LINE
  5
8C4
330
BB4
100
AcDbEntity
  8
0
100
AcDbLine
 10
285.2997860822333
 20
150.2813357333744
 30
0.0
 11
282.061184397663
 21
150.2429789523686
 31
0.0
  0
LINE
  5
A67
330
BB4
100
AcDbEntity
  8
0
100
AcDbLine
 10
285.3170261578477
 20
37.2435285500096
 30
0.0
 11
282.0784244732774
 21
37.20517176900374
 31
0.0
  0
LINE
  5
8C5
330
BB4
100
AcDbEntity
  8
0
100
AcDbLine
 10
282.061184397663
 20
150.2429789523686
 30
0.0
 11
277.5779232892646
 21
150.1932162265385
 31
0.0
  0
LINE
  5
A68
330
BB4
100
AcDbEntity
  8
0
100
AcDbLine
 10
282.0784244732774
 20
37.20517176900374
 30
0.0
 11
277.595163364879
 21
37.15540904317366
 31
0.0
  0
LINE
  5
8C6
330
BB4
100
AcDbEntity
  8
0
100
AcDbLine
 10
277.5779232892646
 20
150.1932162265385
 30
0.0
 11
273.0396542462958
 21
150.1449078540409
 31
0.0
  0
LINE
  5
A69
330
BB4
100
AcDbEntity
  8
0
100
AcDbLine
 10
277.595163364879
 20
37.15540904317366
 30
0.0
 11
273.0568943219102
 21
37.1071006706761
 31
0.0
  0
LINE
  5
8C7
330
BB4
100
AcDbEntity
  8
0
100
AcDbLine
 10
273.0396542462958
 20
150.1449078540409
 30
0.0
 11
266.9563565168036
 21
150.083438775977
 31
0.0
  0
LINE
  5
A6A
330
BB4
100
AcDbEntity
  8
0
100
AcDbLine
 10
273.0568943219102
 20
37.1071006706761
 30
0.0
 11
266.9735965924181
 21
37.04563159261214
 31
0.0
  0
LINE
  5
8C8
330
BB4
100
AcDbEntity
  8
0
100
AcDbLine
 10
266.9563565168036
 20
150.083438775977
 30
0.0
 11
260.7983288678778
 21
150.0238341312016
 31
0.0
  0
LINE
  5
A6B
330
BB4
100
AcDbEntity
  8
0
100
AcDbLine
 10
266.9735965924181
 20
37.04563159261214
 30
0.0
 11
260.8155689434923
 21
36.98602694783675
 31
0.0
  0
LINE
  5
8C9
330
BB4
100
AcDbEntity
  8
0
100
AcDbLine
 10
260.7983288678778
 20
150.0238341312016
 30
0.0
 11
252.9065976056708
 21
149.9491328219975
 31
0.0
  0
LINE
  5
A6C
330
BB4
100
AcDbEntity
  8
0
100
AcDbLine
 10
260.8155689434923
 20
36.98602694783675
 30
0.0
 11
252.9238376812853
 21
36.91132563863265
 31
0.0
  0
LINE
  5
8CA
330
BB4
100
AcDbEntity
  8
0
100
AcDbLine
 10
252.9065976056708
 20
149.9491328219975
 30
0.0
 11
244.917858591999
 21
149.8766106586064
 31
0.0
  0
LINE
  5
A6D
330
BB4
100
AcDbEntity
  8
0
100
AcDbLine
 10
252.9238376812853
 20
36.91132563863265
 30
0.0
 11
244.9350986676134
 21
36.83880347524153
 31
0.0
  0
LINE
  5
8CB
330
BB4
100
AcDbEntity
  8
0
100
AcDbLine
 10
244.917858591999
 20
149.8766106586064
 30
0.0
 11
235.2851376447333
 21
149.7944706897343
 31
0.0
  0
LINE
  5
A6E
330
BB4
100
AcDbEntity
  8
0
100
AcDbLine
 10
244.9350986676134
 20
36.83880347524153
 30
0.0
 11
235.3023777203478
 21
36.75666350636946
 31
0.0
  0
LINE
  5
8CC
330
BB4
100
AcDbEntity
  8
0
100
AcDbLine
 10
235.2851376447333
 20
149.7944706897343
 30
0.0
 11
225.5338559064521
 21
149.7146243075932
 31
0.0
  0
LINE
  5
A6F
330
BB4
100
AcDbEntity
  8
0
100
AcDbLine
 10
235.3023777203478
 20
36.75666350636946
 30
0.0
 11
225.5510959820665
 21
36.67681712422835
 31
0.0
  0
LINE
  5
8CD
330
BB4
100
AcDbEntity
  8
0
100
AcDbLine
 10
225.5338559064521
 20
149.7146243075932
 30
0.0
 11
214.6734509381904
 21
149.6621674518192
 31
0.0
  0
LINE
  5
A70
330
BB4
100
AcDbEntity
  8
0
100
AcDbLine
 10
225.5510959820665
 20
36.67681712422835
 30
0.0
 11
214.6906910138048
 21
36.62436026845442
 31
0.0
  0
LINE
  5
8CE
330
BB4
100
AcDbEntity
  8
0
100
AcDbLine
 10
214.6734509381904
 20
149.6621674518192
 30
0.0
 11
203.6792263898505
 21
149.6120470981205
 31
0.0
  0
LINE
  5
A71
330
BB4
100
AcDbEntity
  8
0
100
AcDbLine
 10
214.6906910138048
 20
36.62436026845442
 30
0.0
 11
203.696466465465
 21
36.57423991475569
 31
0.0
  0
LINE
  5
8CF
330
BB4
100
AcDbEntity
  8
0
100
AcDbLine
 10
203.6792263898505
 20
149.6120470981205
 30
0.0
 11
192.5819668683662
 21
149.6826619128788
 31
0.0
  0
LINE
  5
A72
330
BB4
100
AcDbEntity
  8
0
100
AcDbLine
 10
203.696466465465
 20
36.57423991475569
 30
0.0
 11
192.5992069439806
 21
36.64485472951399
 31
0.0
  0
LINE
  5
8D0
330
BB4
100
AcDbEntity
  8
0
100
AcDbLine
 10
192.5819668683662
 20
149.6826619128788
 30
0.0
 11
181.3478741559638
 21
149.7560423831547
 31
0.0
  0
LINE
  5
A73
330
BB4
100
AcDbEntity
  8
0
100
AcDbLine
 10
192.5992069439806
 20
36.64485472951399
 30
0.0
 11
181.3651142315782
 21
36.71823519978987
 31
0.0
  0
LINE
  5
8D1
330
BB4
100
AcDbEntity
  8
0
100
AcDbLine
 10
181.3478741559638
 20
149.7560423831547
 30
0.0
 11
171.3516888532294
 21
149.9872797946537
 31
0.0
  0
LINE
  5
A74
330
BB4
100
AcDbEntity
  8
0
100
AcDbLine
 10
181.3651142315782
 20
36.71823519978987
 30
0.0
 11
171.3689289288439
 21
36.9494726112889
 31
0.0
  0
LINE
  5
8D2
330
BB4
100
AcDbEntity
  8
0
100
AcDbLine
 10
171.3516888532294
 20
149.9872797946537
 30
0.0
 11
161.2316784772529
 21
150.2215069751347
 31
0.0
  0
LINE
  5
A75
330
BB4
100
AcDbEntity
  8
0
100
AcDbLine
 10
171.3689289288439
 20
36.9494726112889
 30
0.0
 11
161.2489185528673
 21
37.18369979176985
 31
0.0
  0
LINE
  5
8D3
330
BB4
100
AcDbEntity
  8
0
100
AcDbLine
 10
161.2316784772529
 20
150.2215069751347
 30
0.0
 11
157.1838650617255
 21
150.3380650500858
 31
0.0
  0
LINE
  5
A76
330
BB4
100
AcDbEntity
  8
0
100
AcDbLine
 10
161.2489185528673
 20
37.18369979176985
 30
0.0
 11
157.20110513734
 21
37.30025786672103
 31
0.0
  0
LINE
  5
8D4
330
BB4
100
AcDbEntity
  8
0
100
AcDbLine
 10
157.1838650617255
 20
150.3380650500858
 30
0.0
 11
153.1291088971747
 21
150.4548186282719
 31
0.0
  0
LINE
  5
A77
330
BB4
100
AcDbEntity
  8
0
100
AcDbLine
 10
157.20110513734
 20
37.30025786672103
 30
0.0
 11
153.1463489727892
 21
37.41701144490706
 31
0.0
  0
LINE
  5
8D5
330
BB4
100
AcDbEntity
  8
0
100
AcDbLine
 10
153.1291088971747
 20
150.4548186282719
 30
0.0
 11
145.1258358869208
 21
150.6870001773441
 31
0.0
  0
LINE
  5
A78
330
BB4
100
AcDbEntity
  8
0
100
AcDbLine
 10
153.1463489727892
 20
37.41701144490706
 30
0.0
 11
145.1430759625353
 21
37.64919299397933
 31
0.0
  0
LINE
  5
8D6
330
BB4
100
AcDbEntity
  8
0
100
AcDbLine
 10
145.1258358869208
 20
150.6870001773441
 30
0.0
 11
139.3369564923896
 21
151.0444706897343
 31
0.0
  0
LINE
  5
A79
330
BB4
100
AcDbEntity
  8
0
100
AcDbLine
 10
145.1430759625353
 20
37.64919299397933
 30
0.0
 11
139.354196568004
 21
38.00666350636946
 31
0.0
  0
LINE
  5
8D7
330
BB4
100
AcDbEntity
  8
0
100
AcDbLine
 10
139.3369564923896
 20
151.0444706897343
 30
0.0
 11
133.6187634381904
 21
151.4005297641361
 31
0.0
  0
LINE
  5
A7A
330
BB4
100
AcDbEntity
  8
0
100
AcDbLine
 10
139.354196568004
 20
38.00666350636946
 30
0.0
 11
133.6360035138048
 21
38.36272258077132
 31
0.0
  0
LINE
  5
8D8
330
BB4
100
AcDbEntity
  8
0
100
AcDbLine
 10
133.6187634381904
 20
151.4005297641361
 30
0.0
 11
129.9496731671943
 21
151.8893403033817
 31
0.0
  0
LINE
  5
A7B
330
BB4
100
AcDbEntity
  8
0
100
AcDbLine
 10
133.6360035138048
 20
38.36272258077132
 30
0.0
 11
129.9669132428087
 21
38.85153312001692
 31
0.0
  0
LINE
  5
8D9
330
BB4
100
AcDbEntity
  8
0
100
AcDbLine
 10
129.9496731671943
 20
151.8893403033817
 30
0.0
 11
126.3251767072333
 21
152.3755091647709
 31
0.0
  0
LINE
  5
A7C
330
BB4
100
AcDbEntity
  8
0
100
AcDbLine
 10
129.9669132428087
 20
38.85153312001692
 30
0.0
 11
126.3424167828478
 21
39.33770198140608
 31
0.0
  0
LINE
  5
8DA
330
BB4
100
AcDbEntity
  8
0
100
AcDbLine
 10
126.3251767072333
 20
152.3755091647709
 30
0.0
 11
124.2475399884833
 21
152.914397142371
 31
0.0
  0
LINE
  5
A7D
330
BB4
100
AcDbEntity
  8
0
100
AcDbLine
 10
126.3424167828478
 20
39.33770198140608
 30
0.0
 11
124.2647800640978
 21
39.87658995900618
 31
0.0
  0
LINE
  5
8DB
330
BB4
100
AcDbEntity
  8
0
100
AcDbLine
 10
124.2475399884833
 20
152.914397142371
 30
0.0
 11
122.1949658307685
 21
153.4497755984867
 31
0.0
  0
LINE
  5
A7E
330
BB4
100
AcDbEntity
  8
0
100
AcDbLine
 10
124.2647800640978
 20
39.87658995900618
 30
0.0
 11
122.2122059063829
 21
40.4119684151219
 31
0.0
  0
LINE
  5
8DC
330
BB4
100
AcDbEntity
  8
0
100
AcDbLine
 10
122.1949658307685
 20
153.4497755984867
 30
0.0
 11
121.1366543683662
 21
153.9548796634281
 31
0.0
  0
LINE
  5
A7F
330
BB4
100
AcDbEntity
  8
0
100
AcDbLine
 10
122.2122059063829
 20
40.4119684151219
 30
0.0
 11
121.1538944439806
 21
40.91707248006331
 31
0.0
  0
LINE
  5
8DD
330
BB4
100
AcDbEntity
  8
0
100
AcDbLine
 10
121.1366543683662
 20
153.9548796634281
 30
0.0
 11
120.090969553913
 21
154.4563454608524
 31
0.0
  0
LINE
  5
A80
330
BB4
100
AcDbEntity
  8
0
100
AcDbLine
 10
121.1538944439806
 20
40.91707248006331
 30
0.0
 11
120.1082096295275
 21
41.41853827748763
 31
0.0
  0
LINE
  5
8DE
330
BB4
100
AcDbEntity
  8
0
100
AcDbLine
 10
120.090969553913
 20
154.4563454608524
 30
0.0
 11
119.6068081769599
 21
154.8797196368778
 31
0.0
  0
LINE
  5
A81
330
BB4
100
AcDbEntity
  8
0
100
AcDbLine
 10
120.1082096295275
 20
41.41853827748763
 30
0.0
 11
119.6240482525743
 21
41.84191245351302
 31
0.0
  0
LINE
  5
8DF
330
BB4
100
AcDbEntity
  8
0
100
AcDbLine
 10
119.6068081769599
 20
154.8797196368778
 30
0.0
 11
119.1283688459052
 21
155.2998656253422
 31
0.0
  0
LINE
  5
A82
330
BB4
100
AcDbEntity
  8
0
100
AcDbLine
 10
119.6240482525743
 20
41.84191245351302
 30
0.0
 11
119.1456089215197
 21
42.26205844197737
 31
0.0
  0
TEXT
  5
8E0
330
BB4
100
AcDbEntity
  8
0
100
AcDbText
 10
204.8578076276435
 20
152.2983454684823
 30
0.0
 40
8.0
  1
17
  7
textstyle11
100
AcDbText
  0
TEXT
  5
A83
330
BB4
100
AcDbEntity
  8
0
100
AcDbText
 10
204.8750477032579
 20
39.26053828511748
 30
0.0
 40
8.0
  1
17
  7
textstyle12
100
AcDbText
  0
LINE
  5
8E1
330
BB4
100
AcDbEntity
  8
0
100
AcDbLine
 10
173.5944885642577
 20
137.2143395010151
 30
0.0
 11
173.1622070701175
 21
136.9833166662372
 31
0.0
  0
LINE
  5
8E2
330
BB4
100
AcDbEntity
  8
0
100
AcDbLine
 10
244.1844448957094
 20
156.9656986217101
 30
0.0
 11
243.7521634015693
 21
156.7346757869323
 31
0.0
  0
LINE
  5
A84
330
BB4
100
AcDbEntity
  8
0
100
AcDbLine
 10
173.6117286398721
 20
24.17653231765024
 30
0.0
 11
173.179447145732
 21
23.94550948287241
 31
0.0
  0
LINE
  5
A85
330
BB4
100
AcDbEntity
  8
0
100
AcDbLine
 10
244.2016849713239
 20
43.92789143834533
 30
0.0
 11
243.7694034771837
 21
43.69686860356749
 31
0.0
  0
LINE
  5
8E3
330
BB4
100
AcDbEntity
  8
0
100
AcDbLine
 10
46.31131595683672
 20
141.8567307058491
 30
0.0
 11
45.87903446269564
 21
141.6257078710712
 31
0.0
  0
LINE
  5
A86
330
BB4
100
AcDbEntity
  8
0
100
AcDbLine
 10
46.32855603245116
 20
28.81892352248423
 30
0.0
 11
45.89627453831008
 21
28.58790068770639
 31
0.0
  0
LINE
  5
8E4
330
BB4
100
AcDbEntity
  8
0
100
AcDbLine
 10
173.1622070701175
 20
136.9833166662372
 30
0.0
 11
172.7833694846688
 21
136.6724093023456
 31
0.0
  0
LINE
  5
8E5
330
BB4
100
AcDbEntity
  8
0
100
AcDbLine
 10
243.7521634015693
 20
156.7346757869323
 30
0.0
 11
243.3733258161205
 21
156.4237684230407
 31
0.0
  0
LINE
  5
A87
330
BB4
100
AcDbEntity
  8
0
100
AcDbLine
 10
173.179447145732
 20
23.94550948287241
 30
0.0
 11
172.8006095602832
 21
23.63460211898081
 31
0.0
  0
LINE
  5
A88
330
BB4
100
AcDbEntity
  8
0
100
AcDbLine
 10
243.7694034771837
 20
43.69686860356749
 30
0.0
 11
243.390565891735
 21
43.38596123967589
 31
0.0
  0
LINE
  5
8E6
330
BB4
100
AcDbEntity
  8
0
100
AcDbLine
 10
45.87903446269564
 20
141.6257078710712
 30
0.0
 11
45.50019687724642
 21
141.3148005071796
 31
0.0
  0
LINE
  5
A89
330
BB4
100
AcDbEntity
  8
0
100
AcDbLine
 10
45.89627453831008
 20
28.58790068770639
 30
0.0
 11
45.51743695286086
 21
28.27699332381479
 31
0.0
  0
LINE
  5
8E7
330
BB4
100
AcDbEntity
  8
0
100
AcDbLine
 10
172.7833694846688
 20
136.6724093023456
 30
0.0
 11
172.4724335105477
 21
136.2935669485248
 31
0.0
  0
LINE
  5
8E8
330
BB4
100
AcDbEntity
  8
0
100
AcDbLine
 10
243.3733258161205
 20
156.4237684230407
 30
0.0
 11
243.0623898419994
 21
156.0449260692199
 31
0.0
  0
LINE
  5
A8A
330
BB4
100
AcDbEntity
  8
0
100
AcDbLine
 10
172.8006095602832
 20
23.63460211898081
 30
0.0
 11
172.4896735861621
 21
23.25575976516001
 31
0.0
  0
LINE
  5
A8B
330
BB4
100
AcDbEntity
  8
0
100
AcDbLine
 10
243.390565891735
 20
43.38596123967589
 30
0.0
 11
243.0796299176139
 21
43.00711888585509
 31
0.0
  0
LINE
  5
8E9
330
BB4
100
AcDbEntity
  8
0
100
AcDbLine
 10
45.50019687724642
 20
141.3148005071796
 30
0.0
 11
45.18926090312578
 21
140.9359581533588
 31
0.0
  0
LINE
  5
A8C
330
BB4
100
AcDbEntity
  8
0
100
AcDbLine
 10
45.51743695286086
 20
28.27699332381479
 30
0.0
 11
45.20650097874022
 21
27.89815096999399
 31
0.0
  0
LINE
  5
8EA
330
BB4
100
AcDbEntity
  8
0
100
AcDbLine
 10
172.4724335105477
 20
136.2935669485248
 30
0.0
 11
172.2414917380867
 21
135.8613522115864
 31
0.0
  0
LINE
  5
8EB
330
BB4
100
AcDbEntity
  8
0
100
AcDbLine
 10
243.0623898419994
 20
156.0449260692199
 30
0.0
 11
242.8314480695385
 21
155.6127113322814
 31
0.0
  0
LINE
  5
A8D
330
BB4
100
AcDbEntity
  8
0
100
AcDbLine
 10
172.4896735861621
 20
23.25575976516001
 30
0.0
 11
172.2587318137012
 21
22.82354502822153
 31
0.0
  0
LINE
  5
A8E
330
BB4
100
AcDbEntity
  8
0
100
AcDbLine
 10
243.0796299176139
 20
43.00711888585509
 30
0.0
 11
242.8486881451529
 21
42.57490414891662
 31
0.0
  0
LINE
  5
8EC
330
BB4
100
AcDbEntity
  8
0
100
AcDbLine
 10
45.18926090312578
 20
140.9359581533588
 30
0.0
 11
44.95831913066439
 21
140.5037434164203
 31
0.0
  0
LINE
  5
A8F
330
BB4
100
AcDbEntity
  8
0
100
AcDbLine
 10
45.20650097874022
 20
27.89815096999399
 30
0.0
 11
44.97555920627883
 21
27.46593623305552
 31
0.0
  0
LINE
  5
8ED
330
BB4
100
AcDbEntity
  8
0
100
AcDbLine
 10
172.2414917380867
 20
135.8613522115864
 30
0.0
 11
172.0991272361327
 21
135.3923685613788
 31
0.0
  0
LINE
  5
8EE
330
BB4
100
AcDbEntity
  8
0
100
AcDbLine
 10
242.8314480695385
 20
155.6127113322814
 30
0.0
 11
242.6890835675844
 21
155.1437276820739
 31
0.0
  0
LINE
  5
A90
330
BB4
100
AcDbEntity
  8
0
100
AcDbLine
 10
172.2587318137012
 20
22.82354502822153
 30
0.0
 11
172.1163673117471
 21
22.35456137801401
 31
0.0
  0
LINE
  5
A91
330
BB4
100
AcDbEntity
  8
0
100
AcDbLine
 10
242.8486881451529
 20
42.57490414891662
 30
0.0
 11
242.7063236431989
 21
42.1059204987091
 31
0.0
  0
LINE
  5
8EF
330
BB4
100
AcDbEntity
  8
0
100
AcDbLine
 10
44.95831913066439
 20
140.5037434164203
 30
0.0
 11
44.81595462871172
 21
140.0347597662128
 31
0.0
  0
LINE
  5
A92
330
BB4
100
AcDbEntity
  8
0
100
AcDbLine
 10
44.97555920627883
 20
27.46593623305552
 30
0.0
 11
44.83319470432616
 21
26.996952582848
 31
0.0
  0
LINE
  5
8F0
330
BB4
100
AcDbEntity
  8
0
100
AcDbLine
 10
172.0991272361327
 20
135.3923685613788
 30
0.0
 11
172.0511383445316
 21
134.9046452108539
 31
0.0
  0
LINE
  5
8F1
330
BB4
100
AcDbEntity
  8
0
100
AcDbLine
 10
242.6890835675844
 20
155.1437276820739
 30
0.0
 11
242.6410946759833
 21
154.656004331549
 31
0.0
  0
LINE
  5
A93
330
BB4
100
AcDbEntity
  8
0
100
AcDbLine
 10
172.1163673117471
 20
22.35456137801401
 30
0.0
 11
172.068378420146
 21
21.86683802748911
 31
0.0
  0
LINE
  5
A94
330
BB4
100
AcDbEntity
  8
0
100
AcDbLine
 10
242.7063236431989
 20
42.1059204987091
 30
0.0
 11
242.6583347515978
 21
41.61819714818419
 31
0.0
  0
LINE
  5
8F2
330
BB4
100
AcDbEntity
  8
0
100
AcDbLine
 10
44.81595462871172
 20
140.0347597662128
 30
0.0
 11
44.76796573710971
 21
139.5470364156879
 31
0.0
  0
LINE
  5
A95
330
BB4
100
AcDbEntity
  8
0
100
AcDbLine
 10
44.83319470432616
 20
26.996952582848
 30
0.0
 11
44.78520581272414
 21
26.50922923232309
 31
0.0
  0
LINE
  5
8F3
330
BB4
100
AcDbEntity
  8
0
100
AcDbLine
 10
172.0511383445316
 20
134.9046452108539
 30
0.0
 11
172.0902008445316
 21
134.5080406728901
 31
0.0
  0
LINE
  5
8F4
330
BB4
100
AcDbEntity
  8
0
100
AcDbLine
 10
242.6410946759833
 20
154.656004331549
 30
0.0
 11
242.6801571759833
 21
154.2593997935851
 31
0.0
  0
LINE
  5
A96
330
BB4
100
AcDbEntity
  8
0
100
AcDbLine
 10
172.068378420146
 20
21.86683802748911
 30
0.0
 11
172.107440920146
 21
21.47023348952524
 31
0.0
  0
LINE
  5
A97
330
BB4
100
AcDbEntity
  8
0
100
AcDbLine
 10
242.6583347515978
 20
41.61819714818419
 30
0.0
 11
242.6973972515978
 21
41.22159261022033
 31
0.0
  0
LINE
  5
8F5
330
BB4
100
AcDbEntity
  8
0
100
AcDbLine
 10
44.76796573710971
 20
139.5470364156879
 30
0.0
 11
44.80702823710971
 21
139.1504318777241
 31
0.0
  0
LINE
  5
A98
330
BB4
100
AcDbEntity
  8
0
100
AcDbLine
 10
44.78520581272414
 20
26.50922923232309
 30
0.0
 11
44.82426831272414
 21
26.11262469435923
 31
0.0
  0
LINE
  5
8F6
330
BB4
100
AcDbEntity
  8
0
100
AcDbLine
 10
172.0902008445316
 20
134.5080406728901
 30
0.0
 11
172.0902008445316
 21
134.5077593389667
 31
0.0
  0
LINE
  5
8F7
330
BB4
100
AcDbEntity
  8
0
100
AcDbLine
 10
242.6801571759833
 20
154.2593997935851
 30
0.0
 11
242.6801571759833
 21
154.2591184596618
 31
0.0
  0
LINE
  5
A99
330
BB4
100
AcDbEntity
  8
0
100
AcDbLine
 10
172.107440920146
 20
21.47023348952524
 30
0.0
 11
172.107440920146
 21
21.4699521556019
 31
0.0
  0
LINE
  5
A9A
330
BB4
100
AcDbEntity
  8
0
100
AcDbLine
 10
242.6973972515978
 20
41.22159261022033
 30
0.0
 11
242.6973972515978
 21
41.22131127629699
 31
0.0
  0
LINE
  5
8F8
330
BB4
100
AcDbEntity
  8
0
100
AcDbLine
 10
44.80702823710971
 20
139.1504318777241
 30
0.0
 11
44.80702823710971
 21
139.1501505438007
 31
0.0
  0
LINE
  5
A9B
330
BB4
100
AcDbEntity
  8
0
100
AcDbLine
 10
44.82426831272414
 20
26.11262469435923
 30
0.0
 11
44.82426831272414
 21
26.11234336043589
 31
0.0
  0
LINE
  5
8F9
330
BB4
100
AcDbEntity
  8
0
100
AcDbLine
 10
172.0902008445316
 20
134.5077593389667
 30
0.0
 11
172.0991272361327
 21
134.4169170919575
 31
0.0
  0
LINE
  5
8FA
330
BB4
100
AcDbEntity
  8
0
100
AcDbLine
 10
242.6801571759833
 20
154.2591184596618
 30
0.0
 11
242.6890835675844
 21
154.1682762126525
 31
0.0
  0
LINE
  5
A9C
330
BB4
100
AcDbEntity
  8
0
100
AcDbLine
 10
172.107440920146
 20
21.4699521556019
 30
0.0
 11
172.1163673117471
 21
21.37910990859262
 31
0.0
  0
LINE
  5
A9D
330
BB4
100
AcDbEntity
  8
0
100
AcDbLine
 10
242.6973972515978
 20
41.22131127629699
 30
0.0
 11
242.7063236431989
 21
41.13046902928771
 31
0.0
  0
LINE
  5
8FB
330
BB4
100
AcDbEntity
  8
0
100
AcDbLine
 10
44.80702823710971
 20
139.1501505438007
 30
0.0
 11
44.81595462871172
 21
139.0593082967914
 31
0.0
  0
LINE
  5
A9E
330
BB4
100
AcDbEntity
  8
0
100
AcDbLine
 10
44.82426831272414
 20
26.11234336043589
 30
0.0
 11
44.83319470432616
 21
26.02150111342661
 31
0.0
  0
LINE
  5
8FC
330
BB4
100
AcDbEntity
  8
0
100
AcDbLine
 10
172.0991272361327
 20
134.4169170919575
 30
0.0
 11
172.2414154441405
 21
133.9479334417499
 31
0.0
  0
LINE
  5
8FD
330
BB4
100
AcDbEntity
  8
0
100
AcDbLine
 10
242.6890835675844
 20
154.1682762126525
 30
0.0
 11
242.8313717755923
 21
153.699292562445
 31
0.0
  0
LINE
  5
A9F
330
BB4
100
AcDbEntity
  8
0
100
AcDbLine
 10
172.1163673117471
 20
21.37910990859262
 30
0.0
 11
172.2586555197549
 21
20.91012625838511
 31
0.0
  0
LINE
  5
AA0
330
BB4
100
AcDbEntity
  8
0
100
AcDbLine
 10
242.7063236431989
 20
41.13046902928771
 30
0.0
 11
242.8486118512067
 21
40.66148537908019
 31
0.0
  0
LINE
  5
8FE
330
BB4
100
AcDbEntity
  8
0
100
AcDbLine
 10
44.81595462871172
 20
139.0593082967914
 30
0.0
 11
44.95824283671863
 21
138.5903246465839
 31
0.0
  0
LINE
  5
AA1
330
BB4
100
AcDbEntity
  8
0
100
AcDbLine
 10
44.83319470432616
 20
26.02150111342661
 30
0.0
 11
44.97548291233306
 21
25.55251746321909
 31
0.0
  0
LINE
  5
8FF
330
BB4
100
AcDbEntity
  8
0
100
AcDbLine
 10
172.2414154441405
 20
133.9479334417499
 30
0.0
 11
172.4724716575199
 21
133.5157139364399
 31
0.0
  0
LINE
  5
900
330
BB4
100
AcDbEntity
  8
0
100
AcDbLine
 10
242.8313717755923
 20
153.699292562445
 30
0.0
 11
243.0624279889716
 21
153.267073057135
 31
0.0
  0
LINE
  5
AA2
330
BB4
100
AcDbEntity
  8
0
100
AcDbLine
 10
172.2586555197549
 20
20.91012625838511
 30
0.0
 11
172.4897117331343
 21
20.47790675307505
 31
0.0
  0
LINE
  5
AA3
330
BB4
100
AcDbEntity
  8
0
100
AcDbLine
 10
242.8486118512067
 20
40.66148537908019
 30
0.0
 11
243.0796680645861
 21
40.22926587377013
 31
0.0
  0
LINE
  5
901
330
BB4
100
AcDbEntity
  8
0
100
AcDbLine
 10
44.95824283671863
 20
138.5903246465839
 30
0.0
 11
45.18929905009799
 21
138.1581051412739
 31
0.0
  0
LINE
  5
AA4
330
BB4
100
AcDbEntity
  8
0
100
AcDbLine
 10
44.97548291233306
 20
25.55251746321909
 30
0.0
 11
45.20653912571242
 21
25.12029795790903
 31
0.0
  0
LINE
  5
902
330
BB4
100
AcDbEntity
  8
0
100
AcDbLine
 10
172.4724716575199
 20
133.5157139364399
 30
0.0
 11
172.7834076316405
 21
133.1368763509907
 31
0.0
  0
LINE
  5
903
330
BB4
100
AcDbEntity
  8
0
100
AcDbLine
 10
243.0624279889716
 20
153.267073057135
 30
0.0
 11
243.3733639630923
 21
152.8882354716857
 31
0.0
  0
LINE
  5
AA5
330
BB4
100
AcDbEntity
  8
0
100
AcDbLine
 10
172.4897117331343
 20
20.47790675307505
 30
0.0
 11
172.8006477072549
 21
20.09906916762583
 31
0.0
  0
LINE
  5
AA6
330
BB4
100
AcDbEntity
  8
0
100
AcDbLine
 10
243.0796680645861
 20
40.22926587377013
 30
0.0
 11
243.3906040387067
 21
39.85042828832091
 31
0.0
  0
LINE
  5
904
330
BB4
100
AcDbEntity
  8
0
100
AcDbLine
 10
45.18929905009799
 20
138.1581051412739
 30
0.0
 11
45.50023502421863
 21
137.7792675558246
 31
0.0
  0
LINE
  5
AA7
330
BB4
100
AcDbEntity
  8
0
100
AcDbLine
 10
45.20653912571242
 20
25.12029795790903
 30
0.0
 11
45.51747509983306
 21
24.74146037245981
 31
0.0
  0
LINE
  5
905
330
BB4
100
AcDbEntity
  8
0
100
AcDbLine
 10
172.7834076316405
 20
133.1368763509907
 30
0.0
 11
173.1622070701175
 21
132.8259689870991
 31
0.0
  0
LINE
  5
906
330
BB4
100
AcDbEntity
  8
0
100
AcDbLine
 10
243.3733639630923
 20
152.8882354716857
 30
0.0
 11
243.7521634015693
 21
152.5773281077941
 31
0.0
  0
LINE
  5
AA8
330
BB4
100
AcDbEntity
  8
0
100
AcDbLine
 10
172.8006477072549
 20
20.09906916762583
 30
0.0
 11
173.179447145732
 21
19.78816180373423
 31
0.0
  0
LINE
  5
AA9
330
BB4
100
AcDbEntity
  8
0
100
AcDbLine
 10
243.3906040387067
 20
39.85042828832091
 30
0.0
 11
243.7694034771837
 21
39.53952092442931
 31
0.0
  0
LINE
  5
907
330
BB4
100
AcDbEntity
  8
0
100
AcDbLine
 10
45.50023502421863
 20
137.7792675558246
 30
0.0
 11
45.87903446269564
 21
137.468360191933
 31
0.0
  0
LINE
  5
AAA
330
BB4
100
AcDbEntity
  8
0
100
AcDbLine
 10
45.51747509983306
 20
24.74146037245981
 30
0.0
 11
45.89627453831008
 21
24.43055300856821
 31
0.0
  0
LINE
  5
908
330
BB4
100
AcDbEntity
  8
0
100
AcDbLine
 10
173.1622070701175
 20
132.8259689870991
 30
0.0
 11
173.5944122703128
 21
132.5949413839496
 31
0.0
  0
LINE
  5
909
330
BB4
100
AcDbEntity
  8
0
100
AcDbLine
 10
243.7521634015693
 20
152.5773281077941
 30
0.0
 11
244.1843686017646
 21
152.3463005046447
 31
0.0
  0
LINE
  5
AAB
330
BB4
100
AcDbEntity
  8
0
100
AcDbLine
 10
173.179447145732
 20
19.78816180373423
 30
0.0
 11
173.6116523459273
 21
19.55713420058481
 31
0.0
  0
LINE
  5
AAC
330
BB4
100
AcDbEntity
  8
0
100
AcDbLine
 10
243.7694034771837
 20
39.53952092442931
 30
0.0
 11
244.201608677379
 21
39.3084933212799
 31
0.0
  0
LINE
  5
90A
330
BB4
100
AcDbEntity
  8
0
100
AcDbLine
 10
45.87903446269564
 20
137.468360191933
 30
0.0
 11
46.31123966289096
 21
137.2373325887836
 31
0.0
  0
LINE
  5
AAD
330
BB4
100
AcDbEntity
  8
0
100
AcDbLine
 10
45.89627453831008
 20
24.43055300856821
 30
0.0
 11
46.32847973850539
 21
24.1995254054188
 31
0.0
  0
LINE
  5
90B
330
BB4
100
AcDbEntity
  8
0
100
AcDbLine
 10
173.5944122703128
 20
132.5949413839496
 30
0.0
 11
174.0634292991219
 21
132.4526770177997
 31
0.0
  0
LINE
  5
90C
330
BB4
100
AcDbEntity
  8
0
100
AcDbLine
 10
244.1843686017646
 20
152.3463005046447
 30
0.0
 11
244.6533856305736
 21
152.2040361384948
 31
0.0
  0
LINE
  5
AAE
330
BB4
100
AcDbEntity
  8
0
100
AcDbLine
 10
173.6116523459273
 20
19.55713420058481
 30
0.0
 11
174.0806693747363
 21
19.41486983443491
 31
0.0
  0
LINE
  5
AAF
330
BB4
100
AcDbEntity
  8
0
100
AcDbLine
 10
244.201608677379
 20
39.3084933212799
 30
0.0
 11
244.6706257061881
 21
39.16622895512999
 31
0.0
  0
LINE
  5
90D
330
BB4
100
AcDbEntity
  8
0
100
AcDbLine
 10
46.31123966289096
 20
137.2373325887836
 30
0.0
 11
46.78025669169955
 21
137.0950682226337
 31
0.0
  0
LINE
  5
AB0
330
BB4
100
AcDbEntity
  8
0
100
AcDbLine
 10
46.32847973850539
 20
24.1995254054188
 30
0.0
 11
46.79749676731399
 21
24.05726103926889
 31
0.0
  0
LINE
  5
90E
330
BB4
100
AcDbEntity
  8
0
100
AcDbLine
 10
174.0634292991219
 20
132.4526770177997
 30
0.0
 11
174.5511383445316
 21
132.4046404424824
 31
0.0
  0
LINE
  5
90F
330
BB4
100
AcDbEntity
  8
0
100
AcDbLine
 10
244.6533856305736
 20
152.2040361384948
 30
0.0
 11
245.1410946759833
 21
152.1559995631774
 31
0.0
  0
LINE
  5
AB1
330
BB4
100
AcDbEntity
  8
0
100
AcDbLine
 10
174.0806693747363
 20
19.41486983443491
 30
0.0
 11
174.568378420146
 21
19.36683325911753
 31
0.0
  0
LINE
  5
AB2
330
BB4
100
AcDbEntity
  8
0
100
AcDbLine
 10
244.6706257061881
 20
39.16622895512999
 30
0.0
 11
245.1583347515978
 21
39.11819237981261
 31
0.0
  0
LINE
  5
910
330
BB4
100
AcDbEntity
  8
0
100
AcDbLine
 10
46.78025669169955
 20
137.0950682226337
 30
0.0
 11
47.26796573710971
 21
137.0470316473163
 31
0.0
  0
LINE
  5
AB3
330
BB4
100
AcDbEntity
  8
0
100
AcDbLine
 10
46.79749676731399
 20
24.05726103926889
 30
0.0
 11
47.28520581272414
 21
24.00922446395151
 31
0.0
  0
LINE
  5
911
330
BB4
100
AcDbEntity
  8
0
100
AcDbLine
 10
174.5511383445316
 20
132.4046404424824
 30
0.0
 11
175.0388473899417
 21
132.4526770177997
 31
0.0
  0
LINE
  5
912
330
BB4
100
AcDbEntity
  8
0
100
AcDbLine
 10
245.1410946759833
 20
152.1559995631774
 30
0.0
 11
245.6288037213935
 21
152.2040361384948
 31
0.0
  0
LINE
  5
AB4
330
BB4
100
AcDbEntity
  8
0
100
AcDbLine
 10
174.568378420146
 20
19.36683325911753
 30
0.0
 11
175.0560874655562
 21
19.41486983443491
 31
0.0
  0
LINE
  5
AB5
330
BB4
100
AcDbEntity
  8
0
100
AcDbLine
 10
245.1583347515978
 20
39.11819237981261
 30
0.0
 11
245.6460437970079
 21
39.16622895512999
 31
0.0
  0
LINE
  5
913
330
BB4
100
AcDbEntity
  8
0
100
AcDbLine
 10
47.26796573710971
 20
137.0470316473163
 30
0.0
 11
47.75567478251986
 21
137.0950682226337
 31
0.0
  0
LINE
  5
AB6
330
BB4
100
AcDbEntity
  8
0
100
AcDbLine
 10
47.28520581272414
 20
24.00922446395151
 30
0.0
 11
47.7729148581343
 21
24.05726103926889
 31
0.0
  0
LINE
  5
914
330
BB4
100
AcDbEntity
  8
0
100
AcDbLine
 10
175.0388473899417
 20
132.4526770177997
 30
0.0
 11
175.5078644187508
 21
132.5949413839496
 31
0.0
  0
LINE
  5
915
330
BB4
100
AcDbEntity
  8
0
100
AcDbLine
 10
245.6288037213935
 20
152.2040361384948
 30
0.0
 11
246.0978207502025
 21
152.3463005046447
 31
0.0
  0
LINE
  5
AB7
330
BB4
100
AcDbEntity
  8
0
100
AcDbLine
 10
175.0560874655562
 20
19.41486983443491
 30
0.0
 11
175.5251044943652
 21
19.55713420058481
 31
0.0
  0
LINE
  5
AB8
330
BB4
100
AcDbEntity
  8
0
100
AcDbLine
 10
245.6460437970079
 20
39.16622895512999
 30
0.0
 11
246.115060825817
 21
39.3084933212799
 31
0.0
  0
LINE
  5
916
330
BB4
100
AcDbEntity
  8
0
100
AcDbLine
 10
47.75567478251986
 20
137.0950682226337
 30
0.0
 11
48.22469181132846
 21
137.2373325887836
 31
0.0
  0
LINE
  5
AB9
330
BB4
100
AcDbEntity
  8
0
100
AcDbLine
 10
47.7729148581343
 20
24.05726103926889
 30
0.0
 11
48.24193188694289
 21
24.1995254054188
 31
0.0
  0
LINE
  5
917
330
BB4
100
AcDbEntity
  8
0
100
AcDbLine
 10
175.5078644187508
 20
132.5949413839496
 30
0.0
 11
175.9400696189456
 21
132.8259642187275
 31
0.0
  0
LINE
  5
918
330
BB4
100
AcDbEntity
  8
0
100
AcDbLine
 10
246.0978207502025
 20
152.3463005046447
 30
0.0
 11
246.5300259503974
 21
152.5773233394225
 31
0.0
  0
LINE
  5
ABA
330
BB4
100
AcDbEntity
  8
0
100
AcDbLine
 10
175.5251044943652
 20
19.55713420058481
 30
0.0
 11
175.9573096945601
 21
19.78815703536264
 31
0.0
  0
LINE
  5
ABB
330
BB4
100
AcDbEntity
  8
0
100
AcDbLine
 10
246.115060825817
 20
39.3084933212799
 30
0.0
 11
246.5472660260118
 21
39.53951615605773
 31
0.0
  0
LINE
  5
919
330
BB4
100
AcDbEntity
  8
0
100
AcDbLine
 10
48.22469181132846
 20
137.2373325887836
 30
0.0
 11
48.65689701152377
 21
137.4683554235615
 31
0.0
  0
LINE
  5
ABC
330
BB4
100
AcDbEntity
  8
0
100
AcDbLine
 10
48.24193188694289
 20
24.1995254054188
 30
0.0
 11
48.67413708713821
 21
24.43054824019663
 31
0.0
  0
LINE
  5
91A
330
BB4
100
AcDbEntity
  8
0
100
AcDbLine
 10
175.9400696189456
 20
132.8259642187275
 30
0.0
 11
176.3188690574218
 21
133.1368715826191
 31
0.0
  0
LINE
  5
91B
330
BB4
100
AcDbEntity
  8
0
100
AcDbLine
 10
246.5300259503974
 20
152.5773233394225
 30
0.0
 11
246.9088253888735
 21
152.8882307033142
 31
0.0
  0
LINE
  5
ABD
330
BB4
100
AcDbEntity
  8
0
100
AcDbLine
 10
175.9573096945601
 20
19.78815703536264
 30
0.0
 11
176.3361091330362
 21
20.09906439925425
 31
0.0
  0
LINE
  5
ABE
330
BB4
100
AcDbEntity
  8
0
100
AcDbLine
 10
246.5472660260118
 20
39.53951615605773
 30
0.0
 11
246.9260654644879
 21
39.85042351994933
 31
0.0
  0
LINE
  5
91C
330
BB4
100
AcDbEntity
  8
0
100
AcDbLine
 10
48.65689701152377
 20
137.4683554235615
 30
0.0
 11
49.03569645000078
 21
137.7792627874531
 31
0.0
  0
LINE
  5
ABF
330
BB4
100
AcDbEntity
  8
0
100
AcDbLine
 10
48.67413708713821
 20
24.43054824019663
 30
0.0
 11
49.05293652561522
 21
24.74145560408823
 31
0.0
  0
LINE
  5
91D
330
BB4
100
AcDbEntity
  8
0
100
AcDbLine
 10
176.3188690574218
 20
133.1368715826191
 30
0.0
 11
176.6298050315438
 21
133.5157139364399
 31
0.0
  0
LINE
  5
91E
330
BB4
100
AcDbEntity
  8
0
100
AcDbLine
 10
246.9088253888735
 20
152.8882307033142
 30
0.0
 11
247.2197613629955
 21
153.267073057135
 31
0.0
  0
LINE
  5
AC0
330
BB4
100
AcDbEntity
  8
0
100
AcDbLine
 10
176.3361091330362
 20
20.09906439925425
 30
0.0
 11
176.6470451071582
 21
20.47790675307505
 31
0.0
  0
LINE
  5
AC1
330
BB4
100
AcDbEntity
  8
0
100
AcDbLine
 10
246.9260654644879
 20
39.85042351994933
 30
0.0
 11
247.23700143861
 21
40.22926587377013
 31
0.0
  0
LINE
  5
91F
330
BB4
100
AcDbEntity
  8
0
100
AcDbLine
 10
49.03569645000078
 20
137.7792627874531
 30
0.0
 11
49.34663242412142
 21
138.1581051412739
 31
0.0
  0
LINE
  5
AC2
330
BB4
100
AcDbEntity
  8
0
100
AcDbLine
 10
49.05293652561522
 20
24.74145560408823
 30
0.0
 11
49.36387249973586
 21
25.12029795790903
 31
0.0
  0
LINE
  5
920
330
BB4
100
AcDbEntity
  8
0
100
AcDbLine
 10
176.6298050315438
 20
133.5157139364399
 30
0.0
 11
176.8608612449218
 21
133.9479334417499
 31
0.0
  0
LINE
  5
921
330
BB4
100
AcDbEntity
  8
0
100
AcDbLine
 10
247.2197613629955
 20
153.267073057135
 30
0.0
 11
247.4508175763735
 21
153.699292562445
 31
0.0
  0
LINE
  5
AC3
330
BB4
100
AcDbEntity
  8
0
100
AcDbLine
 10
176.6470451071582
 20
20.47790675307505
 30
0.0
 11
176.8781013205362
 21
20.91012625838511
 31
0.0
  0
LINE
  5
AC4
330
BB4
100
AcDbEntity
  8
0
100
AcDbLine
 10
247.23700143861
 20
40.22926587377013
 30
0.0
 11
247.4680576519879
 21
40.66148537908019
 31
0.0
  0
LINE
  5
922
330
BB4
100
AcDbEntity
  8
0
100
AcDbLine
 10
49.34663242412142
 20
138.1581051412739
 30
0.0
 11
49.57768863750078
 21
138.5903246465839
 31
0.0
  0
LINE
  5
AC5
330
BB4
100
AcDbEntity
  8
0
100
AcDbLine
 10
49.36387249973586
 20
25.12029795790903
 30
0.0
 11
49.59492871311522
 21
25.55251746321909
 31
0.0
  0
LINE
  5
923
330
BB4
100
AcDbEntity
  8
0
100
AcDbLine
 10
176.8608612449218
 20
133.9479334417499
 30
0.0
 11
177.0031494529296
 21
134.4169170919575
 31
0.0
  0
LINE
  5
924
330
BB4
100
AcDbEntity
  8
0
100
AcDbLine
 10
247.4508175763735
 20
153.699292562445
 30
0.0
 11
247.5931057843813
 21
154.1682762126525
 31
0.0
  0
LINE
  5
AC6
330
BB4
100
AcDbEntity
  8
0
100
AcDbLine
 10
176.8781013205362
 20
20.91012625838511
 30
0.0
 11
177.020389528544
 21
21.37910990859262
 31
0.0
  0
LINE
  5
AC7
330
BB4
100
AcDbEntity
  8
0
100
AcDbLine
 10
247.4680576519879
 20
40.66148537908019
 30
0.0
 11
247.6103458599958
 21
41.13046902928771
 31
0.0
  0
LINE
  5
925
330
BB4
100
AcDbEntity
  8
0
100
AcDbLine
 10
49.57768863750078
 20
138.5903246465839
 30
0.0
 11
49.71997684550769
 21
139.0593082967914
 31
0.0
  0
LINE
  5
AC8
330
BB4
100
AcDbEntity
  8
0
100
AcDbLine
 10
49.59492871311522
 20
25.55251746321909
 30
0.0
 11
49.73721692112213
 21
26.02150111342661
 31
0.0
  0
LINE
  5
926
330
BB4
100
AcDbEntity
  8
0
100
AcDbLine
 10
177.0031494529296
 20
134.4169170919575
 30
0.0
 11
177.0511383445316
 21
134.9046404424824
 31
0.0
  0
LINE
  5
927
330
BB4
100
AcDbEntity
  8
0
100
AcDbLine
 10
247.5931057843813
 20
154.1682762126525
 30
0.0
 11
247.6410946759833
 21
154.6559995631774
 31
0.0
  0
LINE
  5
AC9
330
BB4
100
AcDbEntity
  8
0
100
AcDbLine
 10
177.020389528544
 20
21.37910990859262
 30
0.0
 11
177.068378420146
 21
21.86683325911753
 31
0.0
  0
LINE
  5
ACA
330
BB4
100
AcDbEntity
  8
0
100
AcDbLine
 10
247.6103458599958
 20
41.13046902928771
 30
0.0
 11
247.6583347515978
 21
41.61819237981261
 31
0.0
  0
LINE
  5
928
330
BB4
100
AcDbEntity
  8
0
100
AcDbLine
 10
49.71997684550769
 20
139.0593082967914
 30
0.0
 11
49.76796573710971
 21
139.5470316473163
 31
0.0
  0
LINE
  5
ACB
330
BB4
100
AcDbEntity
  8
0
100
AcDbLine
 10
49.73721692112213
 20
26.02150111342661
 30
0.0
 11
49.78520581272414
 21
26.50922446395151
 31
0.0
  0
LINE
  5
929
330
BB4
100
AcDbEntity
  8
0
100
AcDbLine
 10
177.0511383445316
 20
134.9046404424824
 30
0.0
 11
177.0031494529296
 21
135.3923685613788
 31
0.0
  0
LINE
  5
92A
330
BB4
100
AcDbEntity
  8
0
100
AcDbLine
 10
247.6410946759833
 20
154.6559995631774
 30
0.0
 11
247.5931057843813
 21
155.1437276820739
 31
0.0
  0
LINE
  5
ACC
330
BB4
100
AcDbEntity
  8
0
100
AcDbLine
 10
177.068378420146
 20
21.86683325911753
 30
0.0
 11
177.020389528544
 21
22.35456137801401
 31
0.0
  0
LINE
  5
ACD
330
BB4
100
AcDbEntity
  8
0
100
AcDbLine
 10
247.6583347515978
 20
41.61819237981261
 30
0.0
 11
247.6103458599958
 21
42.1059204987091
 31
0.0
  0
LINE
  5
92B
330
BB4
100
AcDbEntity
  8
0
100
AcDbLine
 10
49.76796573710971
 20
139.5470316473163
 30
0.0
 11
49.71997684550769
 21
140.0347597662128
 31
0.0
  0
LINE
  5
ACE
330
BB4
100
AcDbEntity
  8
0
100
AcDbLine
 10
49.78520581272414
 20
26.50922446395151
 30
0.0
 11
49.73721692112213
 21
26.996952582848
 31
0.0
  0
LINE
  5
92C
330
BB4
100
AcDbEntity
  8
0
100
AcDbLine
 10
177.0031494529296
 20
135.3923685613788
 30
0.0
 11
176.8608612449218
 21
135.8613474432148
 31
0.0
  0
LINE
  5
92D
330
BB4
100
AcDbEntity
  8
0
100
AcDbLine
 10
247.5931057843813
 20
155.1437276820739
 30
0.0
 11
247.4508175763735
 21
155.6127065639099
 31
0.0
  0
LINE
  5
ACF
330
BB4
100
AcDbEntity
  8
0
100
AcDbLine
 10
177.020389528544
 20
22.35456137801401
 30
0.0
 11
176.8781013205362
 21
22.82354025984995
 31
0.0
  0
LINE
  5
AD0
330
BB4
100
AcDbEntity
  8
0
100
AcDbLine
 10
247.6103458599958
 20
42.1059204987091
 30
0.0
 11
247.4680576519879
 21
42.57489938054503
 31
0.0
  0
LINE
  5
92E
330
BB4
100
AcDbEntity
  8
0
100
AcDbLine
 10
49.71997684550769
 20
140.0347597662128
 30
0.0
 11
49.57768863750078
 21
140.5037386480488
 31
0.0
  0
LINE
  5
AD1
330
BB4
100
AcDbEntity
  8
0
100
AcDbLine
 10
49.73721692112213
 20
26.996952582848
 30
0.0
 11
49.59492871311522
 21
27.46593146468393
 31
0.0
  0
LINE
  5
92F
330
BB4
100
AcDbEntity
  8
0
100
AcDbLine
 10
176.8608612449218
 20
135.8613474432148
 30
0.0
 11
176.6298050315438
 21
136.2935717168964
 31
0.0
  0
LINE
  5
930
330
BB4
100
AcDbEntity
  8
0
100
AcDbLine
 10
247.4508175763735
 20
155.6127065639099
 30
0.0
 11
247.2197613629955
 21
156.0449308375915
 31
0.0
  0
LINE
  5
AD2
330
BB4
100
AcDbEntity
  8
0
100
AcDbLine
 10
176.8781013205362
 20
22.82354025984995
 30
0.0
 11
176.6470451071582
 21
23.25576453353159
 31
0.0
  0
LINE
  5
AD3
330
BB4
100
AcDbEntity
  8
0
100
AcDbLine
 10
247.4680576519879
 20
42.57489938054503
 30
0.0
 11
247.23700143861
 21
43.00712365422667
 31
0.0
  0
LINE
  5
931
330
BB4
100
AcDbEntity
  8
0
100
AcDbLine
 10
49.57768863750078
 20
140.5037386480488
 30
0.0
 11
49.34663242412142
 21
140.9359629217304
 31
0.0
  0
LINE
  5
AD4
330
BB4
100
AcDbEntity
  8
0
100
AcDbLine
 10
49.59492871311522
 20
27.46593146468393
 30
0.0
 11
49.36387249973586
 21
27.89815573836557
 31
0.0
  0
LINE
  5
932
330
BB4
100
AcDbEntity
  8
0
100
AcDbLine
 10
176.6298050315438
 20
136.2935717168964
 30
0.0
 11
176.3188690574218
 21
136.6724093023456
 31
0.0
  0
LINE
  5
933
330
BB4
100
AcDbEntity
  8
0
100
AcDbLine
 10
247.2197613629955
 20
156.0449308375915
 30
0.0
 11
246.9088253888735
 21
156.4237684230407
 31
0.0
  0
LINE
  5
AD5
330
BB4
100
AcDbEntity
  8
0
100
AcDbLine
 10
176.6470451071582
 20
23.25576453353159
 30
0.0
 11
176.3361091330362
 21
23.63460211898081
 31
0.0
  0
LINE
  5
AD6
330
BB4
100
AcDbEntity
  8
0
100
AcDbLine
 10
247.23700143861
 20
43.00712365422667
 30
0.0
 11
246.9260654644879
 21
43.38596123967589
 31
0.0
  0
LINE
  5
934
330
BB4
100
AcDbEntity
  8
0
100
AcDbLine
 10
49.34663242412142
 20
140.9359629217304
 30
0.0
 11
49.03569645000078
 21
141.3148005071796
 31
0.0
  0
LINE
  5
AD7
330
BB4
100
AcDbEntity
  8
0
100
AcDbLine
 10
49.36387249973586
 20
27.89815573836557
 30
0.0
 11
49.05293652561522
 21
28.27699332381479
 31
0.0
  0
LINE
  5
935
330
BB4
100
AcDbEntity
  8
0
100
AcDbLine
 10
176.3188690574218
 20
136.6724093023456
 30
0.0
 11
175.9400696189456
 21
136.9833166662372
 31
0.0
  0
LINE
  5
936
330
BB4
100
AcDbEntity
  8
0
100
AcDbLine
 10
246.9088253888735
 20
156.4237684230407
 30
0.0
 11
246.5300259503974
 21
156.7346757869323
 31
0.0
  0
LINE
  5
AD8
330
BB4
100
AcDbEntity
  8
0
100
AcDbLine
 10
176.3361091330362
 20
23.63460211898081
 30
0.0
 11
175.9573096945601
 21
23.94550948287241
 31
0.0
  0
LINE
  5
AD9
330
BB4
100
AcDbEntity
  8
0
100
AcDbLine
 10
246.9260654644879
 20
43.38596123967589
 30
0.0
 11
246.5472660260118
 21
43.69686860356749
 31
0.0
  0
LINE
  5
937
330
BB4
100
AcDbEntity
  8
0
100
AcDbLine
 10
49.03569645000078
 20
141.3148005071796
 30
0.0
 11
48.65689701152377
 21
141.6257078710712
 31
0.0
  0
LINE
  5
ADA
330
BB4
100
AcDbEntity
  8
0
100
AcDbLine
 10
49.05293652561522
 20
28.27699332381479
 30
0.0
 11
48.67413708713821
 21
28.58790068770639
 31
0.0
  0
LINE
  5
938
330
BB4
100
AcDbEntity
  8
0
100
AcDbLine
 10
175.9400696189456
 20
136.9833166662372
 30
0.0
 11
175.5078644187508
 21
137.2143395010151
 31
0.0
  0
LINE
  5
939
330
BB4
100
AcDbEntity
  8
0
100
AcDbLine
 10
246.5300259503974
 20
156.7346757869323
 30
0.0
 11
246.0978207502025
 21
156.9656986217101
 31
0.0
  0
LINE
  5
ADB
330
BB4
100
AcDbEntity
  8
0
100
AcDbLine
 10
175.9573096945601
 20
23.94550948287241
 30
0.0
 11
175.5251044943652
 21
24.17653231765024
 31
0.0
  0
LINE
  5
ADC
330
BB4
100
AcDbEntity
  8
0
100
AcDbLine
 10
246.5472660260118
 20
43.69686860356749
 30
0.0
 11
246.115060825817
 21
43.92789143834533
 31
0.0
  0
LINE
  5
93A
330
BB4
100
AcDbEntity
  8
0
100
AcDbLine
 10
48.65689701152377
 20
141.6257078710712
 30
0.0
 11
48.22469181132846
 21
141.8567307058491
 31
0.0
  0
LINE
  5
ADD
330
BB4
100
AcDbEntity
  8
0
100
AcDbLine
 10
48.67413708713821
 20
28.58790068770639
 30
0.0
 11
48.24193188694289
 21
28.81892352248423
 31
0.0
  0
LINE
  5
93B
330
BB4
100
AcDbEntity
  8
0
100
AcDbLine
 10
175.5078644187508
 20
137.2143395010151
 30
0.0
 11
175.0388473899417
 21
137.356603867165
 31
0.0
  0
LINE
  5
93C
330
BB4
100
AcDbEntity
  8
0
100
AcDbLine
 10
246.0978207502025
 20
156.9656986217101
 30
0.0
 11
245.6288037213935
 21
157.10796298786
 31
0.0
  0
LINE
  5
ADE
330
BB4
100
AcDbEntity
  8
0
100
AcDbLine
 10
175.5251044943652
 20
24.17653231765024
 30
0.0
 11
175.0560874655562
 21
24.31879668380014
 31
0.0
  0
LINE
  5
ADF
330
BB4
100
AcDbEntity
  8
0
100
AcDbLine
 10
246.115060825817
 20
43.92789143834533
 30
0.0
 11
245.6460437970079
 21
44.07015580449523
 31
0.0
  0
LINE
  5
93D
330
BB4
100
AcDbEntity
  8
0
100
AcDbLine
 10
48.22469181132846
 20
141.8567307058491
 30
0.0
 11
47.75567478251986
 21
141.998995071999
 31
0.0
  0
LINE
  5
AE0
330
BB4
100
AcDbEntity
  8
0
100
AcDbLine
 10
48.24193188694289
 20
28.81892352248423
 30
0.0
 11
47.7729148581343
 21
28.96118788863413
 31
0.0
  0
LINE
  5
93E
330
BB4
100
AcDbEntity
  8
0
100
AcDbLine
 10
175.0388473899417
 20
137.356603867165
 30
0.0
 11
174.8201126487308
 21
137.3781521383442
 31
0.0
  0
LINE
  5
93F
330
BB4
100
AcDbEntity
  8
0
100
AcDbLine
 10
245.6288037213935
 20
157.10796298786
 30
0.0
 11
245.4100689801826
 21
157.1295112590392
 31
0.0
  0
LINE
  5
AE1
330
BB4
100
AcDbEntity
  8
0
100
AcDbLine
 10
175.0560874655562
 20
24.31879668380014
 30
0.0
 11
174.8373527243452
 21
24.34034495497934
 31
0.0
  0
LINE
  5
AE2
330
BB4
100
AcDbEntity
  8
0
100
AcDbLine
 10
245.6460437970079
 20
44.07015580449523
 30
0.0
 11
245.427309055797
 21
44.09170407567443
 31
0.0
  0
LINE
  5
940
330
BB4
100
AcDbEntity
  8
0
100
AcDbLine
 10
47.75567478251986
 20
141.998995071999
 30
0.0
 11
47.53694004130892
 21
142.0205433431782
 31
0.0
  0
LINE
  5
AE3
330
BB4
100
AcDbEntity
  8
0
100
AcDbLine
 10
47.7729148581343
 20
28.96118788863413
 30
0.0
 11
47.55418011692336
 21
28.98273615981333
 31
0.0
  0
LINE
  5
941
330
BB4
100
AcDbEntity
  8
0
100
AcDbLine
 10
174.8201126487308
 20
137.3781521383442
 30
0.0
 11
174.8199982078128
 21
137.3781616750873
 31
0.0
  0
LINE
  5
942
330
BB4
100
AcDbEntity
  8
0
100
AcDbLine
 10
245.4100689801826
 20
157.1295112590392
 30
0.0
 11
245.4099545392646
 21
157.1295207957824
 31
0.0
  0
LINE
  5
AE4
330
BB4
100
AcDbEntity
  8
0
100
AcDbLine
 10
174.8373527243452
 20
24.34034495497934
 30
0.0
 11
174.8372382834273
 21
24.34035449172251
 31
0.0
  0
LINE
  5
AE5
330
BB4
100
AcDbEntity
  8
0
100
AcDbLine
 10
245.427309055797
 20
44.09170407567443
 30
0.0
 11
245.427194614879
 21
44.09171361241759
 31
0.0
  0
LINE
  5
943
330
BB4
100
AcDbEntity
  8
0
100
AcDbLine
 10
47.53694004130892
 20
142.0205433431782
 30
0.0
 11
47.53682560039096
 21
142.0205528799213
 31
0.0
  0
LINE
  5
AE6
330
BB4
100
AcDbEntity
  8
0
100
AcDbLine
 10
47.55418011692336
 20
28.98273615981333
 30
0.0
 11
47.55406567600539
 21
28.98274569655649
 31
0.0
  0
LINE
  5
944
330
BB4
100
AcDbEntity
  8
0
100
AcDbLine
 10
174.8199982078128
 20
137.3781616750873
 30
0.0
 11
174.5511383445316
 21
137.4046404424824
 31
0.0
  0
LINE
  5
945
330
BB4
100
AcDbEntity
  8
0
100
AcDbLine
 10
245.4099545392646
 20
157.1295207957824
 30
0.0
 11
245.1410946759833
 21
157.1559995631774
 31
0.0
  0
LINE
  5
AE7
330
BB4
100
AcDbEntity
  8
0
100
AcDbLine
 10
174.8372382834273
 20
24.34035449172251
 30
0.0
 11
174.568378420146
 21
24.36683325911753
 31
0.0
  0
LINE
  5
AE8
330
BB4
100
AcDbEntity
  8
0
100
AcDbLine
 10
245.427194614879
 20
44.09171361241759
 30
0.0
 11
245.1583347515978
 21
44.11819237981261
 31
0.0
  0
LINE
  5
946
330
BB4
100
AcDbEntity
  8
0
100
AcDbLine
 10
47.53682560039096
 20
142.0205528799213
 30
0.0
 11
47.26796573710971
 21
142.0470316473163
 31
0.0
  0
LINE
  5
AE9
330
BB4
100
AcDbEntity
  8
0
100
AcDbLine
 10
47.55406567600539
 20
28.98274569655649
 30
0.0
 11
47.28520581272414
 21
29.00922446395151
 31
0.0
  0
LINE
  5
947
330
BB4
100
AcDbEntity
  8
0
100
AcDbLine
 10
174.5511383445316
 20
137.4046404424824
 30
0.0
 11
174.0634292991219
 21
137.356603867165
 31
0.0
  0
LINE
  5
948
330
BB4
100
AcDbEntity
  8
0
100
AcDbLine
 10
245.1410946759833
 20
157.1559995631774
 30
0.0
 11
244.6533856305736
 21
157.10796298786
 31
0.0
  0
LINE
  5
AEA
330
BB4
100
AcDbEntity
  8
0
100
AcDbLine
 10
174.568378420146
 20
24.36683325911753
 30
0.0
 11
174.0806693747363
 21
24.31879668380014
 31
0.0
  0
LINE
  5
AEB
330
BB4
100
AcDbEntity
  8
0
100
AcDbLine
 10
245.1583347515978
 20
44.11819237981261
 30
0.0
 11
244.6706257061881
 21
44.07015580449523
 31
0.0
  0
LINE
  5
949
330
BB4
100
AcDbEntity
  8
0
100
AcDbLine
 10
47.26796573710971
 20
142.0470316473163
 30
0.0
 11
46.78025669169955
 21
141.998995071999
 31
0.0
  0
LINE
  5
AEC
330
BB4
100
AcDbEntity
  8
0
100
AcDbLine
 10
47.28520581272414
 20
29.00922446395151
 30
0.0
 11
46.79749676731399
 21
28.96118788863413
 31
0.0
  0
LINE
  5
94A
330
BB4
100
AcDbEntity
  8
0
100
AcDbLine
 10
174.0634292991219
 20
137.356603867165
 30
0.0
 11
173.5944885642577
 21
137.2143395010151
 31
0.0
  0
LINE
  5
94B
330
BB4
100
AcDbEntity
  8
0
100
AcDbLine
 10
244.6533856305736
 20
157.10796298786
 30
0.0
 11
244.1844448957094
 21
156.9656986217101
 31
0.0
  0
LINE
  5
AED
330
BB4
100
AcDbEntity
  8
0
100
AcDbLine
 10
174.0806693747363
 20
24.31879668380014
 30
0.0
 11
173.6117286398721
 21
24.17653231765024
 31
0.0
  0
LINE
  5
AEE
330
BB4
100
AcDbEntity
  8
0
100
AcDbLine
 10
244.6706257061881
 20
44.07015580449523
 30
0.0
 11
244.2016849713239
 21
43.92789143834533
 31
0.0
  0
LINE
  5
94C
330
BB4
100
AcDbEntity
  8
0
100
AcDbLine
 10
46.78025669169955
 20
141.998995071999
 30
0.0
 11
46.31131595683672
 21
141.8567307058491
 31
0.0
  0
LINE
  5
AEF
330
BB4
100
AcDbEntity
  8
0
100
AcDbLine
 10
46.79749676731399
 20
28.96118788863413
 30
0.0
 11
46.32855603245116
 21
28.81892352248423
 31
0.0
  0
LINE
  5
94D
330
BB4
100
AcDbEntity
  8
0
100
AcDbLine
 10
53.33165592265658
 20
148.7062723699726
 30
0.0
 11
72.54826969218783
 21
150.0572688642658
 31
0.0
  0
LINE
  5
AF0
330
BB4
100
AcDbEntity
  8
0
100
AcDbLine
 10
53.34889599827102
 20
35.66846518660776
 30
0.0
 11
72.56550976780227
 21
37.01946168090097
 31
0.0
  0
LINE
  5
94E
330
BB4
100
AcDbEntity
  8
0
100
AcDbLine
 10
72.54826969218783
 20
150.0572688642658
 30
0.0
 11
72.54888004375078
 21
150.0573141637958
 31
0.0
  0
LINE
  5
AF1
330
BB4
100
AcDbEntity
  8
0
100
AcDbLine
 10
72.56550976780227
 20
37.01946168090097
 30
0.0
 11
72.56612011936522
 21
37.019506980431
 31
0.0
  0
LINE
  5
94F
330
BB4
100
AcDbEntity
  8
0
100
AcDbLine
 10
72.54888004375078
 20
150.0573141637958
 30
0.0
 11
72.54968113017566
 21
150.0572903219379
 31
0.0
  0
LINE
  5
AF2
330
BB4
100
AcDbEntity
  8
0
100
AcDbLine
 10
72.56612011936522
 20
37.019506980431
 30
0.0
 11
72.5669212057901
 21
37.01948313857309
 31
0.0
  0
LINE
  5
950
330
BB4
100
AcDbEntity
  8
0
100
AcDbLine
 10
72.54968113017566
 20
150.0572903219379
 30
0.0
 11
96.27660221171863
 21
149.3720610204853
 31
0.0
  0
LINE
  5
AF3
330
BB4
100
AcDbEntity
  8
0
100
AcDbLine
 10
72.5669212057901
 20
37.01948313857309
 30
0.0
 11
96.29384228733306
 21
36.33425383712046
 31
0.0
  0
LINE
  5
951
330
BB4
100
AcDbEntity
  8
0
100
AcDbLine
 10
96.27660221171863
 20
149.3720610204853
 30
0.0
 11
96.27744144511752
 21
149.3719894949116
 31
0.0
  0
LINE
  5
AF4
330
BB4
100
AcDbEntity
  8
0
100
AcDbLine
 10
96.29384228733306
 20
36.33425383712046
 30
0.0
 11
96.29468152073196
 21
36.33418231154673
 31
0.0
  0
LINE
  5
952
330
BB4
100
AcDbEntity
  8
0
100
AcDbLine
 10
96.27744144511752
 20
149.3719894949116
 30
0.0
 11
121.9264358909188
 21
147.1493847433246
 31
0.0
  0
LINE
  5
AF5
330
BB4
100
AcDbEntity
  8
0
100
AcDbLine
 10
96.29468152073196
 20
36.33418231154673
 30
0.0
 11
121.9436759665332
 21
34.11157755995981
 31
0.0
  0
LINE
  5
953
330
BB4
100
AcDbEntity
  8
0
100
AcDbLine
 10
121.9264358909188
 20
147.1493847433246
 30
0.0
 11
121.9272369773436
 21
147.1492822233356
 31
0.0
  0
LINE
  5
AF6
330
BB4
100
AcDbEntity
  8
0
100
AcDbLine
 10
121.9436759665332
 20
34.11157755995981
 30
0.0
 11
121.9444770529581
 21
34.1114750399708
 31
0.0
  0
LINE
  5
954
330
BB4
100
AcDbEntity
  8
0
100
AcDbLine
 10
121.9272369773436
 20
147.1492822233356
 30
0.0
 11
146.8871063621097
 21
144.02366233503
 31
0.0
  0
LINE
  5
AF7
330
BB4
100
AcDbEntity
  8
0
100
AcDbLine
 10
121.9444770529581
 20
34.1114750399708
 30
0.0
 11
146.9043464377241
 21
30.98585515166513
 31
0.0
  0
LINE
  5
955
330
BB4
100
AcDbEntity
  8
0
100
AcDbLine
 10
146.8871063621097
 20
144.02366233503
 30
0.0
 11
146.8877930076175
 21
144.0235526624836
 31
0.0
  0
LINE
  5
AF8
330
BB4
100
AcDbEntity
  8
0
100
AcDbLine
 10
146.9043464377241
 20
30.98585515166513
 30
0.0
 11
146.905033083232
 21
30.98574547911875
 31
0.0
  0
LINE
  5
956
330
BB4
100
AcDbEntity
  8
0
100
AcDbLine
 10
146.8877930076175
 20
144.0235526624836
 30
0.0
 11
168.8916153342777
 21
140.6127078596271
 31
0.0
  0
LINE
  5
AF9
330
BB4
100
AcDbEntity
  8
0
100
AcDbLine
 10
146.905033083232
 20
30.98574547911875
 30
0.0
 11
168.9088554098921
 21
27.5749006762623
 31
0.0
  0
LINE
  5
957
330
BB4
100
AcDbEntity
  8
0
100
AcDbLine
 10
168.8916153342777
 20
140.6127078596271
 30
0.0
 11
168.8921875388675
 21
140.6126029554523
 31
0.0
  0
LINE
  5
AFA
330
BB4
100
AcDbEntity
  8
0
100
AcDbLine
 10
168.9088554098921
 20
27.5749006762623
 30
0.0
 11
168.909427614482
 21
27.5747957720875
 31
0.0
  0
LINE
  5
958
330
BB4
100
AcDbEntity
  8
0
100
AcDbLine
 10
168.8921875388675
 20
140.6126029554523
 30
0.0
 11
176.5894073875008
 21
139.2385561529316
 31
0.0
  0
LINE
  5
AFB
330
BB4
100
AcDbEntity
  8
0
100
AcDbLine
 10
168.909427614482
 20
27.5747957720875
 30
0.0
 11
176.6066474631152
 21
26.20074896956675
 31
0.0
  0
LINE
  5
959
330
BB4
100
AcDbEntity
  8
0
100
AcDbLine
 10
176.5894073875008
 20
139.2385561529316
 30
0.0
 11
186.8140930564456
 21
137.4133284155048
 31
0.0
  0
LINE
  5
AFC
330
BB4
100
AcDbEntity
  8
0
100
AcDbLine
 10
176.6066474631152
 20
26.20074896956675
 30
0.0
 11
186.8313331320601
 21
24.37552123213999
 31
0.0
  0
LINE
  5
95A
330
BB4
100
AcDbEntity
  8
0
100
AcDbLine
 10
186.8140930564456
 20
137.4133284155048
 30
0.0
 11
186.8145126731449
 21
137.4132378164448
 31
0.0
  0
LINE
  5
AFD
330
BB4
100
AcDbEntity
  8
0
100
AcDbLine
 10
186.8313331320601
 20
24.37552123213999
 30
0.0
 11
186.8317527487593
 21
24.37543063307993
 31
0.0
  0
LINE
  5
95B
330
BB4
100
AcDbEntity
  8
0
100
AcDbLine
 10
186.8145126731449
 20
137.4132378164448
 30
0.0
 11
200.5578369529296
 21
134.7020609441913
 31
0.0
  0
LINE
  5
AFE
330
BB4
100
AcDbEntity
  8
0
100
AcDbLine
 10
186.8317527487593
 20
24.37543063307993
 30
0.0
 11
200.575077028544
 21
21.66425376082651
 31
0.0
  0
LINE
  5
95C
330
BB4
100
AcDbEntity
  8
0
100
AcDbLine
 10
200.5578369529296
 20
134.7020609441913
 30
0.0
 11
200.5581802756839
 21
134.7019894186176
 31
0.0
  0
LINE
  5
AFF
330
BB4
100
AcDbEntity
  8
0
100
AcDbLine
 10
200.575077028544
 20
21.66425376082651
 30
0.0
 11
200.5754203512984
 21
21.66418223525278
 31
0.0
  0
LINE
  5
95D
330
BB4
100
AcDbEntity
  8
0
100
AcDbLine
 10
200.5581802756839
 20
134.7019894186176
 30
0.0
 11
210.6424469382816
 21
132.5636084142841
 31
0.0
  0
LINE
  5
B00
330
BB4
100
AcDbEntity
  8
0
100
AcDbLine
 10
200.5754203512984
 20
21.66418223525278
 30
0.0
 11
210.659687013896
 21
19.52580123091928
 31
0.0
  0
LINE
  5
95E
330
BB4
100
AcDbEntity
  8
0
100
AcDbLine
 10
210.6424469382816
 20
132.5636084142841
 30
0.0
 11
210.6427139670897
 21
132.5635559621967
 31
0.0
  0
LINE
  5
B01
330
BB4
100
AcDbEntity
  8
0
100
AcDbLine
 10
210.659687013896
 20
19.52580123091928
 30
0.0
 11
210.6599540427042
 21
19.52574877883188
 31
0.0
  0
LINE
  5
95F
330
BB4
100
AcDbEntity
  8
0
100
AcDbLine
 10
210.6427139670897
 20
132.5635559621967
 30
0.0
 11
217.8141159446297
 21
130.9618170324482
 31
0.0
  0
LINE
  5
B02
330
BB4
100
AcDbEntity
  8
0
100
AcDbLine
 10
210.6599540427042
 20
19.52574877883188
 30
0.0
 11
217.8313560202441
 21
17.92400984908335
 31
0.0
  0
LINE
  5
960
330
BB4
100
AcDbEntity
  8
0
100
AcDbLine
 10
217.8141159446297
 20
130.9618170324482
 30
0.0
 11
217.8030914695316
 21
130.8605654302753
 31
0.0
  0
LINE
  5
B03
330
BB4
100
AcDbEntity
  8
0
100
AcDbLine
 10
217.8313560202441
 20
17.92400984908335
 30
0.0
 11
217.820331545146
 21
17.8227582469105
 31
0.0
  0
LINE
  5
961
330
BB4
100
AcDbEntity
  8
0
100
AcDbLine
 10
217.8030914695316
 20
130.8605654302753
 30
0.0
 11
217.7921051414066
 21
130.7593138281025
 31
0.0
  0
LINE
  5
B04
330
BB4
100
AcDbEntity
  8
0
100
AcDbLine
 10
217.820331545146
 20
17.8227582469105
 30
0.0
 11
217.809345217021
 21
17.72150664473764
 31
0.0
  0
LINE
  5
962
330
BB4
100
AcDbEntity
  8
0
100
AcDbLine
 10
217.7921051414066
 20
130.7593138281025
 30
0.0
 11
217.7810806663089
 21
130.6580622259296
 31
0.0
  0
LINE
  5
B05
330
BB4
100
AcDbEntity
  8
0
100
AcDbLine
 10
217.809345217021
 20
17.72150664473764
 30
0.0
 11
217.7983207419234
 21
17.62025504256479
 31
0.0
  0
LINE
  5
963
330
BB4
100
AcDbEntity
  8
0
100
AcDbLine
 10
217.7810806663089
 20
130.6580622259296
 30
0.0
 11
217.7700943381839
 21
130.5568106237568
 31
0.0
  0
LINE
  5
B06
330
BB4
100
AcDbEntity
  8
0
100
AcDbLine
 10
217.7983207419234
 20
17.62025504256479
 30
0.0
 11
217.7873344137984
 21
17.51900344039194
 31
0.0
  0
LINE
  5
964
330
BB4
100
AcDbEntity
  8
0
100
AcDbLine
 10
217.7700943381839
 20
130.5568106237568
 30
0.0
 11
210.4271454246097
 21
130.5035717550434
 31
0.0
  0
LINE
  5
B07
330
BB4
100
AcDbEntity
  8
0
100
AcDbLine
 10
217.7873344137984
 20
17.51900344039194
 30
0.0
 11
210.4443855002241
 21
17.46576457167856
 31
0.0
  0
LINE
  5
965
330
BB4
100
AcDbEntity
  8
0
100
AcDbLine
 10
210.4271454246097
 20
130.5035717550434
 30
0.0
 11
210.4268783958007
 21
130.5035717550434
 31
0.0
  0
LINE
  5
B08
330
BB4
100
AcDbEntity
  8
0
100
AcDbLine
 10
210.4443855002241
 20
17.46576457167856
 30
0.0
 11
210.4441184714151
 21
17.46576457167856
 31
0.0
  0
LINE
  5
966
330
BB4
100
AcDbEntity
  8
0
100
AcDbLine
 10
210.4268783958007
 20
130.5035717550434
 30
0.0
 11
200.1365036399417
 21
130.4389603201069
 31
0.0
  0
LINE
  5
B09
330
BB4
100
AcDbEntity
  8
0
100
AcDbLine
 10
210.4441184714151
 20
17.46576457167856
 30
0.0
 11
200.1537437155562
 21
17.40115313674204
 31
0.0
  0
LINE
  5
967
330
BB4
100
AcDbEntity
  8
0
100
AcDbLine
 10
200.1365036399417
 20
130.4389603201069
 30
0.0
 11
200.1361603171878
 21
130.4389555517353
 31
0.0
  0
LINE
  5
B0A
330
BB4
100
AcDbEntity
  8
0
100
AcDbLine
 10
200.1537437155562
 20
17.40115313674204
 30
0.0
 11
200.1534003928023
 21
17.40114836837046
 31
0.0
  0
LINE
  5
968
330
BB4
100
AcDbEntity
  8
0
100
AcDbLine
 10
200.1361603171878
 20
130.4389555517353
 30
0.0
 11
186.1718124778328
 21
130.3606875005878
 31
0.0
  0
LINE
  5
B0B
330
BB4
100
AcDbEntity
  8
0
100
AcDbLine
 10
200.1534003928023
 20
17.40114836837046
 30
0.0
 11
186.1890525534473
 21
17.322880317223
 31
0.0
  0
LINE
  5
969
330
BB4
100
AcDbEntity
  8
0
100
AcDbLine
 10
186.1718124778328
 20
130.3606875005878
 30
0.0
 11
186.1713547141605
 21
130.3606875005878
 31
0.0
  0
LINE
  5
B0C
330
BB4
100
AcDbEntity
  8
0
100
AcDbLine
 10
186.1890525534473
 20
17.322880317223
 30
0.0
 11
186.1885947897749
 21
17.322880317223
 31
0.0
  0
LINE
  5
96A
330
BB4
100
AcDbEntity
  8
0
100
AcDbLine
 10
186.1713547141605
 20
130.3606875005878
 30
0.0
 11
168.0537170798827
 21
130.2634604040302
 31
0.0
  0
LINE
  5
B0D
330
BB4
100
AcDbEntity
  8
0
100
AcDbLine
 10
186.1885947897749
 20
17.322880317223
 30
0.0
 11
168.0709571554971
 21
17.22565322066538
 31
0.0
  0
LINE
  5
96B
330
BB4
100
AcDbEntity
  8
0
100
AcDbLine
 10
168.0537170798827
 20
130.2634604040302
 30
0.0
 11
168.0531448752938
 21
130.2634556356586
 31
0.0
  0
LINE
  5
B0E
330
BB4
100
AcDbEntity
  8
0
100
AcDbLine
 10
168.0709571554971
 20
17.22565322066538
 30
0.0
 11
168.0703849509082
 21
17.2256484522938
 31
0.0
  0
LINE
  5
96C
330
BB4
100
AcDbEntity
  8
0
100
AcDbLine
 10
168.0531448752938
 20
130.2634556356586
 30
0.0
 11
145.9357208640628
 21
130.1541836324848
 31
0.0
  0
LINE
  5
B0F
330
BB4
100
AcDbEntity
  8
0
100
AcDbLine
 10
168.0703849509082
 20
17.2256484522938
 30
0.0
 11
145.9529609396773
 21
17.11637644911997
 31
0.0
  0
LINE
  5
96D
330
BB4
100
AcDbEntity
  8
0
100
AcDbLine
 10
145.9357208640628
 20
130.1541836324848
 30
0.0
 11
145.9349960715828
 21
130.1541836324848
 31
0.0
  0
LINE
  5
B10
330
BB4
100
AcDbEntity
  8
0
100
AcDbLine
 10
145.9529609396773
 20
17.11637644911997
 30
0.0
 11
145.9522361471973
 21
17.11637644911997
 31
0.0
  0
LINE
  5
96E
330
BB4
100
AcDbEntity
  8
0
100
AcDbLine
 10
145.9349960715828
 20
130.1541836324848
 30
0.0
 11
120.9953827292977
 21
130.1052839819111
 31
0.0
  0
LINE
  5
B11
330
BB4
100
AcDbEntity
  8
0
100
AcDbLine
 10
145.9522361471973
 20
17.11637644911997
 30
0.0
 11
121.0126228049121
 21
17.06747679854624
 31
0.0
  0
LINE
  5
96F
330
BB4
100
AcDbEntity
  8
0
100
AcDbLine
 10
120.9953827292977
 20
130.1052839819111
 30
0.0
 11
120.9945434958988
 21
130.1052839819111
 31
0.0
  0
LINE
  5
B12
330
BB4
100
AcDbEntity
  8
0
100
AcDbLine
 10
121.0126228049121
 20
17.06747679854624
 30
0.0
 11
121.0117835715132
 21
17.06747679854624
 31
0.0
  0
LINE
  5
970
330
BB4
100
AcDbEntity
  8
0
100
AcDbLine
 10
120.9945434958988
 20
130.1052839819111
 30
0.0
 11
95.50786441875078
 21
130.3128655019916
 31
0.0
  0
LINE
  5
B13
330
BB4
100
AcDbEntity
  8
0
100
AcDbLine
 10
121.0117835715132
 20
17.06747679854624
 30
0.0
 11
95.52510449436522
 21
17.2750583186268
 31
0.0
  0
LINE
  5
971
330
BB4
100
AcDbEntity
  8
0
100
AcDbLine
 10
95.50786441875078
 20
130.3128655019916
 30
0.0
 11
95.50702518535189
 21
130.3128750387348
 31
0.0
  0
LINE
  5
B14
330
BB4
100
AcDbEntity
  8
0
100
AcDbLine
 10
95.52510449436522
 20
17.2750583186268
 30
0.0
 11
95.52426526096633
 21
17.27506785536997
 31
0.0
  0
LINE
  5
972
330
BB4
100
AcDbEntity
  8
0
100
AcDbLine
 10
95.50702518535189
 20
130.3128750387348
 30
0.0
 11
84.01677555156283
 21
130.5801756445087
 31
0.0
  0
LINE
  5
B15
330
BB4
100
AcDbEntity
  8
0
100
AcDbLine
 10
95.52426526096633
 20
17.27506785536997
 30
0.0
 11
84.03401562717727
 21
17.54236846114389
 31
0.0
  0
LINE
  5
973
330
BB4
100
AcDbEntity
  8
0
100
AcDbLine
 10
84.01677555156283
 20
130.5801756445087
 30
0.0
 11
72.53541416240267
 21
130.8472759786762
 31
0.0
  0
LINE
  5
B16
330
BB4
100
AcDbEntity
  8
0
100
AcDbLine
 10
84.03401562717727
 20
17.54236846114389
 30
0.0
 11
72.55265423801711
 21
17.80946879531137
 31
0.0
  0
LINE
  5
974
330
BB4
100
AcDbEntity
  8
0
100
AcDbLine
 10
72.53541416240267
 20
130.8472759786762
 30
0.0
 11
72.53468936992175
 21
130.847290283791
 31
0.0
  0
LINE
  5
B17
330
BB4
100
AcDbEntity
  8
0
100
AcDbLine
 10
72.55265423801711
 20
17.80946879531137
 30
0.0
 11
72.55192944553619
 21
17.80948310042612
 31
0.0
  0
LINE
  5
975
330
BB4
100
AcDbEntity
  8
0
100
AcDbLine
 10
72.53468936992175
 20
130.847290283791
 30
0.0
 11
72.5340790183597
 21
130.8473093572773
 31
0.0
  0
LINE
  5
B18
330
BB4
100
AcDbEntity
  8
0
100
AcDbLine
 10
72.55192944553619
 20
17.80948310042612
 30
0.0
 11
72.55131909397414
 21
17.80950217391245
 31
0.0
  0
LINE
  5
976
330
BB4
100
AcDbEntity
  8
0
100
AcDbLine
 10
72.5340790183597
 20
130.8473093572773
 30
0.0
 11
54.13743442607455
 21
131.3389380041279
 31
0.0
  0
LINE
  5
B19
330
BB4
100
AcDbEntity
  8
0
100
AcDbLine
 10
72.55131909397414
 20
17.80950217391245
 30
0.0
 11
54.15467450168899
 21
18.30113082076303
 31
0.0
  0
LINE
  5
977
330
BB4
100
AcDbEntity
  8
0
100
AcDbLine
 10
54.13743442607455
 20
131.3389380041279
 30
0.0
 11
54.13701480937578
 21
131.3389618459858
 31
0.0
  0
LINE
  5
B1A
330
BB4
100
AcDbEntity
  8
0
100
AcDbLine
 10
54.15467450168899
 20
18.30113082076303
 30
0.0
 11
54.15425488499022
 21
18.30115466262095
 31
0.0
  0
LINE
  5
978
330
BB4
100
AcDbEntity
  8
0
100
AcDbLine
 10
54.13701480937578
 20
131.3389618459858
 30
0.0
 11
40.99889225078158
 21
132.085173851601
 31
0.0
  0
LINE
  5
B1B
330
BB4
100
AcDbEntity
  8
0
100
AcDbLine
 10
54.15425488499022
 20
18.30115466262095
 30
0.0
 11
41.01613232639602
 21
19.04736666823618
 31
0.0
  0
LINE
  5
979
330
BB4
100
AcDbEntity
  8
0
100
AcDbLine
 10
40.99889225078158
 20
132.085173851601
 30
0.0
 11
40.99858707500078
 21
132.0852072302021
 31
0.0
  0
LINE
  5
B1C
330
BB4
100
AcDbEntity
  8
0
100
AcDbLine
 10
41.01613232639602
 20
19.04736666823618
 30
0.0
 11
41.01582715061522
 21
19.04740004683725
 31
0.0
  0
LINE
  5
97A
330
BB4
100
AcDbEntity
  8
0
100
AcDbLine
 10
40.99858707500078
 20
132.0852072302021
 30
0.0
 11
32.67697757793002
 21
133.1212980810322
 31
0.0
  0
LINE
  5
B1D
330
BB4
100
AcDbEntity
  8
0
100
AcDbLine
 10
41.01582715061522
 20
19.04740004683725
 30
0.0
 11
32.69421765354446
 21
20.08349089766733
 31
0.0
  0
LINE
  5
97B
330
BB4
100
AcDbEntity
  8
0
100
AcDbLine
 10
32.67697757793002
 20
133.1212980810322
 30
0.0
 11
32.67682499003939
 21
133.1213362280048
 31
0.0
  0
LINE
  5
B1E
330
BB4
100
AcDbEntity
  8
0
100
AcDbLine
 10
32.69421765354446
 20
20.08349089766733
 30
0.0
 11
32.69406506565383
 21
20.08352904463999
 31
0.0
  0
LINE
  5
97C
330
BB4
100
AcDbEntity
  8
0
100
AcDbLine
 10
32.67682499003939
 20
133.1213362280048
 30
0.0
 11
27.96884006572299
 21
134.2767889562763
 31
0.0
  0
LINE
  5
B1F
330
BB4
100
AcDbEntity
  8
0
100
AcDbLine
 10
32.69406506565383
 20
20.08352904463999
 30
0.0
 11
27.98608014133742
 21
21.23898177291147
 31
0.0
  0
LINE
  5
97D
330
BB4
100
AcDbEntity
  8
0
100
AcDbLine
 10
27.96884006572299
 20
134.2767889562763
 30
0.0
 11
25.57374424052767
 21
135.3675205770649
 31
0.0
  0
LINE
  5
B20
330
BB4
100
AcDbEntity
  8
0
100
AcDbLine
 10
27.98608014133742
 20
21.23898177291147
 30
0.0
 11
25.59098431614211
 21
22.32971339370005
 31
0.0
  0
LINE
  5
97E
330
BB4
100
AcDbEntity
  8
0
100
AcDbLine
 10
25.57374424052767
 20
135.3675205770649
 30
0.0
 11
24.48033756328158
 21
136.2857325140156
 31
0.0
  0
LINE
  5
B21
330
BB4
100
AcDbEntity
  8
0
100
AcDbLine
 10
25.59098431614211
 20
22.32971339370005
 30
0.0
 11
24.49757763889602
 21
23.24792533065073
 31
0.0
  0
LINE
  5
97F
330
BB4
100
AcDbEntity
  8
0
100
AcDbLine
 10
24.48033756328158
 20
136.2857325140156
 30
0.0
 11
24.04481357646472
 21
137.0010216299213
 31
0.0
  0
LINE
  5
B22
330
BB4
100
AcDbEntity
  8
0
100
AcDbLine
 10
24.49757763889602
 20
23.24792533065073
 30
0.0
 11
24.06205365207916
 21
23.96321444655649
 31
0.0
  0
LINE
  5
980
330
BB4
100
AcDbEntity
  8
0
100
AcDbLine
 10
24.04481357646472
 20
137.0010216299213
 30
0.0
 11
23.91011661601596
 21
137.5298197332538
 31
0.0
  0
LINE
  5
B23
330
BB4
100
AcDbEntity
  8
0
100
AcDbLine
 10
24.06205365207916
 20
23.96321444655649
 30
0.0
 11
23.92735669163039
 21
24.49201254988901
 31
0.0
  0
LINE
  5
981
330
BB4
100
AcDbEntity
  8
0
100
AcDbLine
 10
23.91011661601596
 20
137.5298197332538
 30
0.0
 11
23.91534275126986
 21
138.0754883352436
 31
0.0
  0
LINE
  5
B24
330
BB4
100
AcDbEntity
  8
0
100
AcDbLine
 10
23.92735669163039
 20
24.49201254988901
 30
0.0
 11
23.9325828268843
 21
25.03768115187876
 31
0.0
  0
LINE
  5
982
330
BB4
100
AcDbEntity
  8
0
100
AcDbLine
 10
23.91534275126986
 20
138.0754883352436
 30
0.0
 11
24.1706985862308
 21
138.873732811562
 31
0.0
  0
LINE
  5
B25
330
BB4
100
AcDbEntity
  8
0
100
AcDbLine
 10
23.9325828268843
 20
25.03768115187876
 30
0.0
 11
24.18793866184524
 21
25.83592562819712
 31
0.0
  0
LINE
  5
983
330
BB4
100
AcDbEntity
  8
0
100
AcDbLine
 10
24.1706985862308
 20
138.873732811562
 30
0.0
 11
25.02801364970782
 21
140.0229699674763
 31
0.0
  0
LINE
  5
B26
330
BB4
100
AcDbEntity
  8
0
100
AcDbLine
 10
24.18793866184524
 20
25.83592562819712
 30
0.0
 11
25.04525372532225
 21
26.98516278411142
 31
0.0
  0
LINE
  5
984
330
BB4
100
AcDbEntity
  8
0
100
AcDbLine
 10
25.02801364970782
 20
140.0229699674763
 30
0.0
 11
27.14806980205066
 21
141.6303141180195
 31
0.0
  0
LINE
  5
B27
330
BB4
100
AcDbEntity
  8
0
100
AcDbLine
 10
25.04525372532225
 20
26.98516278411142
 30
0.0
 11
27.16530987766509
 21
28.59250693465464
 31
0.0
  0
LINE
  5
985
330
BB4
100
AcDbEntity
  8
0
100
AcDbLine
 10
27.14806980205066
 20
141.6303141180195
 30
0.0
 11
31.61084598613269
 21
143.7571437421955
 31
0.0
  0
LINE
  5
B28
330
BB4
100
AcDbEntity
  8
0
100
AcDbLine
 10
27.16530987766509
 20
28.59250693465464
 30
0.0
 11
31.62808606174713
 21
30.71933655883066
 31
0.0
  0
LINE
  5
986
330
BB4
100
AcDbEntity
  8
0
100
AcDbLine
 10
31.61084598613269
 20
143.7571437421955
 30
0.0
 11
31.61099857402377
 21
143.7572128835834
 31
0.0
  0
LINE
  5
B29
330
BB4
100
AcDbEntity
  8
0
100
AcDbLine
 10
31.62808606174713
 20
30.71933655883066
 30
0.0
 11
31.62823864963821
 21
30.7194057002186
 31
0.0
  0
LINE
  5
987
330
BB4
100
AcDbEntity
  8
0
100
AcDbLine
 10
31.61099857402377
 20
143.7572128835834
 30
0.0
 11
39.86848301005892
 21
146.2839562956013
 31
0.0
  0
LINE
  5
B2A
330
BB4
100
AcDbEntity
  8
0
100
AcDbLine
 10
31.62823864963821
 20
30.7194057002186
 30
0.0
 11
39.88572308567336
 21
33.24614911223642
 31
0.0
  0
LINE
  5
988
330
BB4
100
AcDbEntity
  8
0
100
AcDbLine
 10
39.86848301005892
 20
146.2839562956013
 30
0.0
 11
39.86875003886752
 21
146.2840397421039
 31
0.0
  0
LINE
  5
B2B
330
BB4
100
AcDbEntity
  8
0
100
AcDbLine
 10
39.88572308567336
 20
33.24614911223642
 30
0.0
 11
39.88599011448196
 21
33.24623255873911
 31
0.0
  0
LINE
  5
989
330
BB4
100
AcDbEntity
  8
0
100
AcDbLine
 10
39.86875003886752
 20
146.2840397421039
 30
0.0
 11
53.33119815898471
 21
148.7061936918415
 31
0.0
  0
LINE
  5
B2C
330
BB4
100
AcDbEntity
  8
0
100
AcDbLine
 10
39.88599011448196
 20
33.24623255873911
 30
0.0
 11
53.34843823459914
 21
35.66838650847666
 31
0.0
  0
LINE
  5
98A
330
BB4
100
AcDbEntity
  8
0
100
AcDbLine
 10
53.33119815898471
 20
148.7061936918415
 30
0.0
 11
53.33165592265658
 21
148.7062723699726
 31
0.0
  0
LINE
  5
B2D
330
BB4
100
AcDbEntity
  8
0
100
AcDbLine
 10
53.34843823459914
 20
35.66838650847666
 30
0.0
 11
53.34889599827102
 21
35.66846518660776
 31
0.0
  0
TEXT
  5
98B
330
BB4
100
AcDbEntity
  8
0
100
AcDbText
 10
134.2679657371097
 20
132.547022110574
 30
0.0
 40
8.0
  1
7
  7
textstyle13
100
AcDbText
  0
TEXT
  5
B2E
330
BB4
100
AcDbEntity
  8
0
100
AcDbText
 10
134.2852058127241
 20
19.50921492720916
 30
0.0
 40
8.0
  1
7
  7
textstyle14
100
AcDbText
  0
LINE
  5
98C
330
BB4
100
AcDbEntity
  8
0
100
AcDbLine
 10
113.5663714495045
 20
181.0900132592999
 30
0.0
 11
113.1341662493092
 21
180.8589904245218
 31
0.0
  0
LINE
  5
B2F
330
BB4
100
AcDbEntity
  8
0
100
AcDbLine
 10
113.583611525119
 20
68.05220607593503
 30
0.0
 11
113.1514063249237
 21
67.82118324115697
 31
0.0
  0
LINE
  5
98D
330
BB4
100
AcDbEntity
  8
0
100
AcDbLine
 10
113.1341662493092
 20
180.8589904245218
 30
0.0
 11
112.7552905168873
 21
180.5480830606309
 31
0.0
  0
LINE
  5
B30
330
BB4
100
AcDbEntity
  8
0
100
AcDbLine
 10
113.1514063249237
 20
67.82118324115697
 30
0.0
 11
112.7725305925018
 21
67.51027587726605
 31
0.0
  0
LINE
  5
98E
330
BB4
100
AcDbEntity
  8
0
100
AcDbLine
 10
112.7552905168873
 20
180.5480830606309
 30
0.0
 11
112.4945178118092
 21
180.2302997049178
 31
0.0
  0
LINE
  5
B31
330
BB4
100
AcDbEntity
  8
0
100
AcDbLine
 10
112.7725305925018
 20
67.51027587726605
 30
0.0
 11
112.5117578874237
 21
67.19249252155294
 31
0.0
  0
LINE
  5
98F
330
BB4
100
AcDbEntity
  8
0
100
AcDbLine
 10
112.4945178118092
 20
180.2302997049178
 30
0.0
 11
112.4944415178635
 21
180.2302234109729
 31
0.0
  0
LINE
  5
B32
330
BB4
100
AcDbEntity
  8
0
100
AcDbLine
 10
112.5117578874237
 20
67.19249252155294
 30
0.0
 11
112.5116815934779
 21
67.19241622760808
 31
0.0
  0
LINE
  5
990
330
BB4
100
AcDbEntity
  8
0
100
AcDbLine
 10
112.4944415178635
 20
180.2302234109729
 30
0.0
 11
112.4444308367116
 21
180.1692407068099
 31
0.0
  0
LINE
  5
B33
330
BB4
100
AcDbEntity
  8
0
100
AcDbLine
 10
112.5116815934779
 20
67.19241622760808
 30
0.0
 11
112.461670912326
 21
67.13143352344503
 31
0.0
  0
LINE
  5
991
330
BB4
100
AcDbEntity
  8
0
100
AcDbLine
 10
112.4444308367116
 20
180.1692407068099
 30
0.0
 11
112.2134509172784
 21
179.7370259698718
 31
0.0
  0
LINE
  5
B34
330
BB4
100
AcDbEntity
  8
0
100
AcDbLine
 10
112.461670912326
 20
67.13143352344503
 30
0.0
 11
112.2306909928929
 21
66.699218786507
 31
0.0
  0
LINE
  5
992
330
BB4
100
AcDbEntity
  8
0
100
AcDbLine
 10
112.2134509172784
 20
179.7370259698718
 30
0.0
 11
112.0711627092706
 21
179.2680423196639
 31
0.0
  0
LINE
  5
B35
330
BB4
100
AcDbEntity
  8
0
100
AcDbLine
 10
112.2306909928929
 20
66.699218786507
 30
0.0
 11
112.088402784885
 21
66.23023513629903
 31
0.0
  0
LINE
  5
993
330
BB4
100
AcDbEntity
  8
0
100
AcDbLine
 10
112.0711627092706
 20
179.2680423196639
 30
0.0
 11
112.0230975237233
 21
178.780318969139
 31
0.0
  0
LINE
  5
B36
330
BB4
100
AcDbEntity
  8
0
100
AcDbLine
 10
112.088402784885
 20
66.23023513629903
 30
0.0
 11
112.0403375993377
 21
65.74251178577413
 31
0.0
  0
LINE
  5
994
330
BB4
100
AcDbEntity
  8
0
100
AcDbLine
 10
112.0230975237233
 20
178.780318969139
 30
0.0
 11
112.0711627092706
 21
178.2925908502429
 31
0.0
  0
LINE
  5
B37
330
BB4
100
AcDbEntity
  8
0
100
AcDbLine
 10
112.0403375993377
 20
65.74251178577413
 30
0.0
 11
112.088402784885
 21
65.2547836668781
 31
0.0
  0
LINE
  5
995
330
BB4
100
AcDbEntity
  8
0
100
AcDbLine
 10
112.0711627092706
 20
178.2925908502429
 30
0.0
 11
112.2134509172784
 21
177.823607200035
 31
0.0
  0
LINE
  5
B38
330
BB4
100
AcDbEntity
  8
0
100
AcDbLine
 10
112.088402784885
 20
65.2547836668781
 30
0.0
 11
112.2306909928929
 21
64.78580001667012
 31
0.0
  0
LINE
  5
996
330
BB4
100
AcDbEntity
  8
0
100
AcDbLine
 10
112.2134509172784
 20
177.823607200035
 30
0.0
 11
112.4444308367116
 21
177.3913876947249
 31
0.0
  0
LINE
  5
B39
330
BB4
100
AcDbEntity
  8
0
100
AcDbLine
 10
112.2306909928929
 20
64.78580001667012
 30
0.0
 11
112.461670912326
 21
64.35358051136006
 31
0.0
  0
LINE
  5
997
330
BB4
100
AcDbEntity
  8
0
100
AcDbLine
 10
112.4444308367116
 20
177.3913876947249
 30
0.0
 11
112.7553286638605
 21
177.0125501092759
 31
0.0
  0
LINE
  5
B3A
330
BB4
100
AcDbEntity
  8
0
100
AcDbLine
 10
112.461670912326
 20
64.35358051136006
 30
0.0
 11
112.7725687394749
 21
63.97474292591107
 31
0.0
  0
LINE
  5
998
330
BB4
100
AcDbEntity
  8
0
100
AcDbLine
 10
112.7553286638605
 20
177.0125501092759
 30
0.0
 11
113.1341662493092
 21
176.7016427453839
 31
0.0
  0
LINE
  5
B3B
330
BB4
100
AcDbEntity
  8
0
100
AcDbLine
 10
112.7725687394749
 20
63.97474292591107
 30
0.0
 11
113.1514063249237
 21
63.66383556201902
 31
0.0
  0
LINE
  5
999
330
BB4
100
AcDbEntity
  8
0
100
AcDbLine
 10
113.1341662493092
 20
176.7016427453839
 30
0.0
 11
113.5663714495045
 21
176.4706151422349
 31
0.0
  0
LINE
  5
B3C
330
BB4
100
AcDbEntity
  8
0
100
AcDbLine
 10
113.1514063249237
 20
63.66383556201902
 30
0.0
 11
113.583611525119
 21
63.43280795887006
 31
0.0
  0
LINE
  5
99A
330
BB4
100
AcDbEntity
  8
0
100
AcDbLine
 10
113.5663714495045
 20
176.4706151422349
 30
0.0
 11
114.0354266252853
 21
176.3283507760848
 31
0.0
  0
LINE
  5
B3D
330
BB4
100
AcDbEntity
  8
0
100
AcDbLine
 10
113.583611525119
 20
63.43280795887006
 30
0.0
 11
114.0526667008998
 21
63.29054359271993
 31
0.0
  0
LINE
  5
99B
330
BB4
100
AcDbEntity
  8
0
100
AcDbLine
 10
114.0354266252853
 20
176.3283507760848
 30
0.0
 11
114.5231356706964
 21
176.2803142007678
 31
0.0
  0
LINE
  5
B3E
330
BB4
100
AcDbEntity
  8
0
100
AcDbLine
 10
114.0526667008998
 20
63.29054359271993
 30
0.0
 11
114.5403757463108
 21
63.242507017403
 31
0.0
  0
LINE
  5
99C
330
BB4
100
AcDbEntity
  8
0
100
AcDbLine
 10
114.5231356706964
 20
176.2803142007678
 30
0.0
 11
115.0108065691334
 21
176.3283507760848
 31
0.0
  0
LINE
  5
B3F
330
BB4
100
AcDbEntity
  8
0
100
AcDbLine
 10
114.5403757463108
 20
63.242507017403
 30
0.0
 11
115.0280466447479
 21
63.29054359271993
 31
0.0
  0
LINE
  5
99D
330
BB4
100
AcDbEntity
  8
0
100
AcDbLine
 10
115.0108065691334
 20
176.3283507760848
 30
0.0
 11
115.4798235979425
 21
176.4706151422349
 31
0.0
  0
LINE
  5
B40
330
BB4
100
AcDbEntity
  8
0
100
AcDbLine
 10
115.0280466447479
 20
63.29054359271993
 30
0.0
 11
115.4970636735569
 21
63.43280795887006
 31
0.0
  0
LINE
  5
99E
330
BB4
100
AcDbEntity
  8
0
100
AcDbLine
 10
115.4798235979425
 20
176.4706151422349
 30
0.0
 11
115.9120287981373
 21
176.701637977013
 31
0.0
  0
LINE
  5
B41
330
BB4
100
AcDbEntity
  8
0
100
AcDbLine
 10
115.4970636735569
 20
63.43280795887006
 30
0.0
 11
115.9292688737518
 21
63.66383079364812
 31
0.0
  0
LINE
  5
99F
330
BB4
100
AcDbEntity
  8
0
100
AcDbLine
 10
115.9120287981373
 20
176.701637977013
 30
0.0
 11
116.2909045305592
 21
177.0125453409039
 31
0.0
  0
LINE
  5
B42
330
BB4
100
AcDbEntity
  8
0
100
AcDbLine
 10
115.9292688737518
 20
63.66383079364812
 30
0.0
 11
116.3081446061737
 21
63.97473815753904
 31
0.0
  0
LINE
  5
9A0
330
BB4
100
AcDbEntity
  8
0
100
AcDbLine
 10
116.2909045305592
 20
177.0125453409039
 30
0.0
 11
116.6018023577072
 21
177.3913876947249
 31
0.0
  0
LINE
  5
B43
330
BB4
100
AcDbEntity
  8
0
100
AcDbLine
 10
116.3081446061737
 20
63.97473815753904
 30
0.0
 11
116.6190424333216
 21
64.35358051136006
 31
0.0
  0
LINE
  5
9A1
330
BB4
100
AcDbEntity
  8
0
100
AcDbLine
 10
116.6018023577072
 20
177.3913876947249
 30
0.0
 11
116.8328204241135
 21
177.823607200035
 31
0.0
  0
LINE
  5
B44
330
BB4
100
AcDbEntity
  8
0
100
AcDbLine
 10
116.6190424333216
 20
64.35358051136006
 30
0.0
 11
116.8500604997279
 21
64.78580001667012
 31
0.0
  0
LINE
  5
9A2
330
BB4
100
AcDbEntity
  8
0
100
AcDbLine
 10
116.8328204241135
 20
177.823607200035
 30
0.0
 11
116.9751086321213
 21
178.2925908502429
 31
0.0
  0
LINE
  5
B45
330
BB4
100
AcDbEntity
  8
0
100
AcDbLine
 10
116.8500604997279
 20
64.78580001667012
 30
0.0
 11
116.9923487077357
 21
65.2547836668781
 31
0.0
  0
LINE
  5
9A3
330
BB4
100
AcDbEntity
  8
0
100
AcDbLine
 10
116.9751086321213
 20
178.2925908502429
 30
0.0
 11
117.0230975237233
 21
178.7803142007678
 31
0.0
  0
LINE
  5
B46
330
BB4
100
AcDbEntity
  8
0
100
AcDbLine
 10
116.9923487077357
 20
65.2547836668781
 30
0.0
 11
117.0403375993377
 21
65.742507017403
 31
0.0
  0
LINE
  5
9A4
330
BB4
100
AcDbEntity
  8
0
100
AcDbLine
 10
117.0230975237233
 20
178.7803142007678
 30
0.0
 11
116.9751086321213
 21
179.2680423196639
 31
0.0
  0
LINE
  5
B47
330
BB4
100
AcDbEntity
  8
0
100
AcDbLine
 10
117.0403375993377
 20
65.742507017403
 30
0.0
 11
116.9923487077357
 21
66.23023513629903
 31
0.0
  0
LINE
  5
9A5
330
BB4
100
AcDbEntity
  8
0
100
AcDbLine
 10
116.9751086321213
 20
179.2680423196639
 30
0.0
 11
116.8328204241135
 21
179.7370212014998
 31
0.0
  0
LINE
  5
B48
330
BB4
100
AcDbEntity
  8
0
100
AcDbLine
 10
116.9923487077357
 20
66.23023513629903
 30
0.0
 11
116.8500604997279
 21
66.69921401813497
 31
0.0
  0
LINE
  5
9A6
330
BB4
100
AcDbEntity
  8
0
100
AcDbLine
 10
116.8328204241135
 20
179.7370212014998
 30
0.0
 11
116.6018023577072
 21
180.1692407068099
 31
0.0
  0
LINE
  5
B49
330
BB4
100
AcDbEntity
  8
0
100
AcDbLine
 10
116.8500604997279
 20
66.69921401813497
 30
0.0
 11
116.6190424333216
 21
67.13143352344503
 31
0.0
  0
LINE
  5
9A7
330
BB4
100
AcDbEntity
  8
0
100
AcDbLine
 10
116.6018023577072
 20
180.1692407068099
 30
0.0
 11
116.2909045305592
 21
180.5480830606309
 31
0.0
  0
LINE
  5
B4A
330
BB4
100
AcDbEntity
  8
0
100
AcDbLine
 10
116.6190424333216
 20
67.13143352344503
 30
0.0
 11
116.3081446061737
 21
67.51027587726605
 31
0.0
  0
LINE
  5
9A8
330
BB4
100
AcDbEntity
  8
0
100
AcDbLine
 10
116.2909045305592
 20
180.5480830606309
 30
0.0
 11
115.9120287981373
 21
180.8589904245218
 31
0.0
  0
LINE
  5
B4B
330
BB4
100
AcDbEntity
  8
0
100
AcDbLine
 10
116.3081446061737
 20
67.51027587726605
 30
0.0
 11
115.9292688737518
 21
67.82118324115697
 31
0.0
  0
LINE
  5
9A9
330
BB4
100
AcDbEntity
  8
0
100
AcDbLine
 10
115.9120287981373
 20
180.8589904245218
 30
0.0
 11
115.4798235979425
 21
181.0900132592999
 31
0.0
  0
LINE
  5
B4C
330
BB4
100
AcDbEntity
  8
0
100
AcDbLine
 10
115.9292688737518
 20
67.82118324115697
 30
0.0
 11
115.4970636735569
 21
68.05220607593503
 31
0.0
  0
LINE
  5
9AA
330
BB4
100
AcDbEntity
  8
0
100
AcDbLine
 10
115.4798235979425
 20
181.0900132592999
 30
0.0
 11
115.0108065691334
 21
181.2322776254498
 31
0.0
  0
LINE
  5
B4D
330
BB4
100
AcDbEntity
  8
0
100
AcDbLine
 10
115.4970636735569
 20
68.05220607593503
 30
0.0
 11
115.0280466447479
 21
68.19447044208493
 31
0.0
  0
LINE
  5
9AB
330
BB4
100
AcDbEntity
  8
0
100
AcDbLine
 10
115.0108065691334
 20
181.2322776254498
 30
0.0
 11
114.5231356706964
 21
181.2803142007678
 31
0.0
  0
LINE
  5
B4E
330
BB4
100
AcDbEntity
  8
0
100
AcDbLine
 10
115.0280466447479
 20
68.19447044208493
 30
0.0
 11
114.5403757463108
 21
68.242507017403
 31
0.0
  0
LINE
  5
9AC
330
BB4
100
AcDbEntity
  8
0
100
AcDbLine
 10
114.5231356706964
 20
181.2803142007678
 30
0.0
 11
114.0354266252853
 21
181.2322776254498
 31
0.0
  0
LINE
  5
B4F
330
BB4
100
AcDbEntity
  8
0
100
AcDbLine
 10
114.5403757463108
 20
68.242507017403
 30
0.0
 11
114.0526667008998
 21
68.19447044208493
 31
0.0
  0
LINE
  5
9AD
330
BB4
100
AcDbEntity
  8
0
100
AcDbLine
 10
114.0354266252853
 20
181.2322776254498
 30
0.0
 11
113.8086428728444
 21
181.1634890970078
 31
0.0
  0
LINE
  5
B50
330
BB4
100
AcDbEntity
  8
0
100
AcDbLine
 10
114.0526667008998
 20
68.19447044208493
 30
0.0
 11
113.8258829484588
 21
68.125681913643
 31
0.0
  0
LINE
  5
9AE
330
BB4
100
AcDbEntity
  8
0
100
AcDbLine
 10
113.8086428728444
 20
181.1634890970078
 30
0.0
 11
113.8085665788995
 21
181.1634747918929
 31
0.0
  0
LINE
  5
B51
330
BB4
100
AcDbEntity
  8
0
100
AcDbLine
 10
113.8258829484588
 20
68.125681913643
 30
0.0
 11
113.825806654514
 21
68.12566760852803
 31
0.0
  0
LINE
  5
9AF
330
BB4
100
AcDbEntity
  8
0
100
AcDbLine
 10
113.8085665788995
 20
181.1634747918929
 30
0.0
 11
113.5663714495045
 21
181.0900132592999
 31
0.0
  0
LINE
  5
B52
330
BB4
100
AcDbEntity
  8
0
100
AcDbLine
 10
113.825806654514
 20
68.12566760852803
 30
0.0
 11
113.583611525119
 21
68.05220607593503
 31
0.0
  0
LINE
  5
9B0
330
BB4
100
AcDbEntity
  8
0
100
AcDbLine
 10
11.46058226493466
 20
180.1950662072979
 30
0.0
 11
11.46153593925015
 21
179.7439591821519
 31
0.0
  0
LINE
  5
B53
330
BB4
100
AcDbEntity
  8
0
100
AcDbLine
 10
11.4778223405491
 20
67.15725902393308
 30
0.0
 11
11.47877601486459
 21
66.70615199878705
 31
0.0
  0
LINE
  5
9B1
330
BB4
100
AcDbEntity
  8
0
100
AcDbLine
 10
11.46153593925015
 20
179.7439591821519
 30
0.0
 11
11.56777525809872
 21
179.3055550988999
 31
0.0
  0
LINE
  5
B54
330
BB4
100
AcDbEntity
  8
0
100
AcDbLine
 10
11.47877601486459
 20
66.70615199878705
 30
0.0
 11
11.58501533371316
 21
66.2677479155351
 31
0.0
  0
LINE
  5
9B2
330
BB4
100
AcDbEntity
  8
0
100
AcDbLine
 10
11.56777525809872
 20
179.3055550988999
 30
0.0
 11
11.90232420829312
 21
178.7102954324568
 31
0.0
  0
LINE
  5
B55
330
BB4
100
AcDbEntity
  8
0
100
AcDbLine
 10
11.58501533371316
 20
66.2677479155351
 30
0.0
 11
11.91956428390756
 21
65.672488249092
 31
0.0
  0
LINE
  5
9B3
330
BB4
100
AcDbEntity
  8
0
100
AcDbLine
 10
11.90232420829312
 20
178.7102954324568
 30
0.0
 11
12.73411894706356
 21
177.9414622720569
 31
0.0
  0
LINE
  5
B56
330
BB4
100
AcDbEntity
  8
0
100
AcDbLine
 10
11.91956428390756
 20
65.672488249092
 30
0.0
 11
12.751359022678
 21
64.90365508869206
 31
0.0
  0
LINE
  5
9B4
330
BB4
100
AcDbEntity
  8
0
100
AcDbLine
 10
12.73411894706356
 20
177.9414622720569
 30
0.0
 11
14.54697752860653
 21
177.0190732415999
 31
0.0
  0
LINE
  5
B57
330
BB4
100
AcDbEntity
  8
0
100
AcDbLine
 10
12.751359022678
 20
64.90365508869206
 30
0.0
 11
14.56421760422097
 21
63.98126605823506
 31
0.0
  0
LINE
  5
9B5
330
BB4
100
AcDbEntity
  8
0
100
AcDbLine
 10
14.54697752860653
 20
177.0190732415999
 30
0.0
 11
18.09937621024625
 21
176.02599310244
 31
0.0
  0
LINE
  5
B58
330
BB4
100
AcDbEntity
  8
0
100
AcDbLine
 10
14.56421760422097
 20
63.98126605823506
 30
0.0
 11
18.11661628586069
 21
62.98818591907514
 31
0.0
  0
LINE
  5
9B6
330
BB4
100
AcDbEntity
  8
0
100
AcDbLine
 10
18.09937621024625
 20
176.02599310244
 30
0.0
 11
24.36471129325408
 21
175.1121537622298
 31
0.0
  0
LINE
  5
B59
330
BB4
100
AcDbEntity
  8
0
100
AcDbLine
 10
18.11661628586069
 20
62.98818591907514
 30
0.0
 11
24.38195136886851
 21
62.07434657886495
 31
0.0
  0
LINE
  5
9B7
330
BB4
100
AcDbEntity
  8
0
100
AcDbLine
 10
24.36471129325408
 20
175.1121537622298
 30
0.0
 11
28.18791533378142
 21
174.8485820230328
 31
0.0
  0
LINE
  5
B5A
330
BB4
100
AcDbEntity
  8
0
100
AcDbLine
 10
24.38195136886851
 20
62.07434657886495
 30
0.0
 11
28.20515540939586
 21
61.81077483966794
 31
0.0
  0
LINE
  5
9B8
330
BB4
100
AcDbEntity
  8
0
100
AcDbLine
 10
28.18791533378142
 20
174.8485820230328
 30
0.0
 11
34.2403140154225
 21
174.4313304361189
 31
0.0
  0
LINE
  5
B5B
330
BB4
100
AcDbEntity
  8
0
100
AcDbLine
 10
28.20515540939586
 20
61.81077483966794
 30
0.0
 11
34.25755409103694
 21
61.39352325275411
 31
0.0
  0
LINE
  5
9B9
330
BB4
100
AcDbEntity
  8
0
100
AcDbLine
 10
34.2403140154225
 20
174.4313304361189
 30
0.0
 11
48.0547061052667
 21
173.9919965204089
 31
0.0
  0
LINE
  5
B5C
330
BB4
100
AcDbEntity
  8
0
100
AcDbLine
 10
34.25755409103694
 20
61.39352325275411
 30
0.0
 11
48.07194618088114
 21
60.95418933704411
 31
0.0
  0
LINE
  5
9BA
330
BB4
100
AcDbEntity
  8
0
100
AcDbLine
 10
48.0547061052667
 20
173.9919965204089
 30
0.0
 11
65.31460905936736
 21
173.5954825815049
 31
0.0
  0
LINE
  5
B5D
330
BB4
100
AcDbEntity
  8
0
100
AcDbLine
 10
48.07194618088114
 20
60.95418933704411
 30
0.0
 11
65.3318491349818
 21
60.55767539814008
 31
0.0
  0
LINE
  5
9BB
330
BB4
100
AcDbEntity
  8
0
100
AcDbLine
 10
65.31460905936736
 20
173.5954825815049
 30
0.0
 11
65.31472350028533
 21
173.5954825815049
 31
0.0
  0
LINE
  5
B5E
330
BB4
100
AcDbEntity
  8
0
100
AcDbLine
 10
65.3318491349818
 20
60.55767539814008
 30
0.0
 11
65.33196357589976
 21
60.55767539814008
 31
0.0
  0
LINE
  5
9BC
330
BB4
100
AcDbEntity
  8
0
100
AcDbLine
 10
65.31472350028533
 20
173.5954825815049
 30
0.0
 11
84.48979521659437
 21
173.5150782998889
 31
0.0
  0
LINE
  5
B5F
330
BB4
100
AcDbEntity
  8
0
100
AcDbLine
 10
65.33196357589976
 20
60.55767539814008
 30
0.0
 11
84.50703529220881
 21
60.47727111652409
 31
0.0
  0
LINE
  5
9BD
330
BB4
100
AcDbEntity
  8
0
100
AcDbLine
 10
84.48979521659437
 20
173.5150782998889
 30
0.0
 11
84.48994780448545
 21
173.5150782998889
 31
0.0
  0
LINE
  5
B60
330
BB4
100
AcDbEntity
  8
0
100
AcDbLine
 10
84.50703529220881
 20
60.47727111652409
 30
0.0
 11
84.50718788009989
 21
60.47727111652409
 31
0.0
  0
LINE
  5
9BE
330
BB4
100
AcDbEntity
  8
0
100
AcDbLine
 10
84.48994780448545
 20
173.5150782998889
 30
0.0
 11
103.2586398210861
 21
173.6713330682598
 31
0.0
  0
LINE
  5
B61
330
BB4
100
AcDbEntity
  8
0
100
AcDbLine
 10
84.50718788009989
 20
60.47727111652409
 30
0.0
 11
103.2758798967005
 21
60.63352588489499
 31
0.0
  0
LINE
  5
9BF
330
BB4
100
AcDbEntity
  8
0
100
AcDbLine
 10
103.2586398210861
 20
173.6713330682598
 30
0.0
 11
103.2587924089776
 21
173.6713378366319
 31
0.0
  0
LINE
  5
B62
330
BB4
100
AcDbEntity
  8
0
100
AcDbLine
 10
103.2758798967005
 20
60.63352588489499
 30
0.0
 11
103.2760324845921
 21
60.63353065326703
 31
0.0
  0
LINE
  5
9C0
330
BB4
100
AcDbEntity
  8
0
100
AcDbLine
 10
103.2587924089776
 20
173.6713378366319
 30
0.0
 11
119.9085345354425
 21
173.8860337671128
 31
0.0
  0
LINE
  5
B63
330
BB4
100
AcDbEntity
  8
0
100
AcDbLine
 10
103.2760324845921
 20
60.63353065326703
 30
0.0
 11
119.9257746110569
 21
60.84822658374799
 31
0.0
  0
LINE
  5
9C1
330
BB4
100
AcDbEntity
  8
0
100
AcDbLine
 10
119.9085345354425
 20
173.8860337671128
 30
0.0
 11
119.9086489763605
 21
173.8860385354839
 31
0.0
  0
LINE
  5
B64
330
BB4
100
AcDbEntity
  8
0
100
AcDbLine
 10
119.9257746110569
 20
60.84822658374799
 30
0.0
 11
119.9258890519749
 21
60.84823135211911
 31
0.0
  0
LINE
  5
9C2
330
BB4
100
AcDbEntity
  8
0
100
AcDbLine
 10
119.9086489763605
 20
173.8860385354839
 30
0.0
 11
133.5512652483322
 21
174.0832488473738
 31
0.0
  0
LINE
  5
B65
330
BB4
100
AcDbEntity
  8
0
100
AcDbLine
 10
119.9258890519749
 20
60.84823135211911
 30
0.0
 11
133.5685053239466
 21
61.04544166400899
 31
0.0
  0
LINE
  5
9C3
330
BB4
100
AcDbEntity
  8
0
100
AcDbLine
 10
133.5512652483322
 20
174.0832488473738
 30
0.0
 11
144.0692629900314
 21
174.2471282419048
 31
0.0
  0
LINE
  5
B66
330
BB4
100
AcDbEntity
  8
0
100
AcDbLine
 10
133.5685053239466
 20
61.04544166400899
 30
0.0
 11
144.0865030656458
 21
61.20932105854001
 31
0.0
  0
LINE
  5
9C4
330
BB4
100
AcDbEntity
  8
0
100
AcDbLine
 10
144.0692629900314
 20
174.2471282419048
 30
0.0
 11
151.8215670671803
 21
174.3786542352518
 31
0.0
  0
LINE
  5
B67
330
BB4
100
AcDbEntity
  8
0
100
AcDbLine
 10
144.0865030656458
 20
61.20932105854001
 30
0.0
 11
151.8388071427947
 21
61.34084705188695
 31
0.0
  0
LINE
  5
9C5
330
BB4
100
AcDbEntity
  8
0
100
AcDbLine
 10
151.8215670671803
 20
174.3786542352518
 30
0.0
 11
157.3543658342706
 21
174.4809977945178
 31
0.0
  0
LINE
  5
B68
330
BB4
100
AcDbEntity
  8
0
100
AcDbLine
 10
151.8388071427947
 20
61.34084705188695
 30
0.0
 11
157.371605909885
 21
61.443190611153
 31
0.0
  0
LINE
  5
9C6
330
BB4
100
AcDbEntity
  8
0
100
AcDbLine
 10
157.3543658342706
 20
174.4809977945178
 30
0.0
 11
157.3634829607354
 21
174.5648162301859
 31
0.0
  0
LINE
  5
B69
330
BB4
100
AcDbEntity
  8
0
100
AcDbLine
 10
157.371605909885
 20
61.443190611153
 30
0.0
 11
157.3807230363499
 21
61.52700904682104
 31
0.0
  0
LINE
  5
9C7
330
BB4
100
AcDbEntity
  8
0
100
AcDbLine
 10
157.3634829607354
 20
174.5648162301859
 30
0.0
 11
157.3725619402272
 21
174.6486346658548
 31
0.0
  0
LINE
  5
B6A
330
BB4
100
AcDbEntity
  8
0
100
AcDbLine
 10
157.3807230363499
 20
61.52700904682104
 30
0.0
 11
157.3898020158416
 21
61.61082748248998
 31
0.0
  0
LINE
  5
9C8
330
BB4
100
AcDbEntity
  8
0
100
AcDbLine
 10
157.3725619402272
 20
174.6486346658548
 30
0.0
 11
157.3816790666925
 21
174.7324578698958
 31
0.0
  0
LINE
  5
B6B
330
BB4
100
AcDbEntity
  8
0
100
AcDbLine
 10
157.3898020158416
 20
61.61082748248998
 30
0.0
 11
157.3989191423069
 21
61.69465068653096
 31
0.0
  0
LINE
  5
9C9
330
BB4
100
AcDbEntity
  8
0
100
AcDbLine
 10
157.3816790666925
 20
174.7324578698958
 30
0.0
 11
157.3907580461842
 21
174.8162906106799
 31
0.0
  0
LINE
  5
B6C
330
BB4
100
AcDbEntity
  8
0
100
AcDbLine
 10
157.3989191423069
 20
61.69465068653096
 30
0.0
 11
157.4079981217986
 21
61.77848342731511
 31
0.0
  0
LINE
  5
9CA
330
BB4
100
AcDbEntity
  8
0
100
AcDbLine
 10
157.3907580461842
 20
174.8162906106799
 30
0.0
 11
151.9999804582936
 21
176.0840384897078
 31
0.0
  0
LINE
  5
B6D
330
BB4
100
AcDbEntity
  8
0
100
AcDbLine
 10
157.4079981217986
 20
61.77848342731511
 30
0.0
 11
152.017220533908
 21
63.04623130634297
 31
0.0
  0
LINE
  5
9CB
330
BB4
100
AcDbEntity
  8
0
100
AcDbLine
 10
151.9999804582936
 20
176.0840384897078
 30
0.0
 11
144.4182696428634
 21
177.7762906488269
 31
0.0
  0
LINE
  5
B6E
330
BB4
100
AcDbEntity
  8
0
100
AcDbLine
 10
152.017220533908
 20
63.04623130634297
 30
0.0
 11
144.4355097184779
 21
64.73848346546208
 31
0.0
  0
LINE
  5
9CC
330
BB4
100
AcDbEntity
  8
0
100
AcDbLine
 10
144.4182696428634
 20
177.7762906488269
 30
0.0
 11
134.0833392229425
 21
179.9217002328719
 31
0.0
  0
LINE
  5
B6F
330
BB4
100
AcDbEntity
  8
0
100
AcDbLine
 10
144.4355097184779
 20
64.73848346546208
 30
0.0
 11
134.1005792985569
 21
66.88389304950704
 31
0.0
  0
LINE
  5
9CD
330
BB4
100
AcDbEntity
  8
0
100
AcDbLine
 10
134.0833392229425
 20
179.9217002328719
 30
0.0
 11
120.6027712908136
 21
182.4535052713238
 31
0.0
  0
LINE
  5
B70
330
BB4
100
AcDbEntity
  8
0
100
AcDbLine
 10
134.1005792985569
 20
66.88389304950704
 30
0.0
 11
120.620011366428
 21
69.41569808795896
 31
0.0
  0
LINE
  5
9CE
330
BB4
100
AcDbEntity
  8
0
100
AcDbLine
 10
120.6027712908136
 20
182.4535052713238
 30
0.0
 11
120.6026568498956
 21
182.4535243448099
 31
0.0
  0
LINE
  5
B71
330
BB4
100
AcDbEntity
  8
0
100
AcDbLine
 10
120.620011366428
 20
69.41569808795896
 30
0.0
 11
120.61989692551
 21
69.41571716144506
 31
0.0
  0
LINE
  5
9CF
330
BB4
100
AcDbEntity
  8
0
100
AcDbLine
 10
120.6026568498956
 20
182.4535243448099
 30
0.0
 11
116.5545764055592
 21
183.1135766443099
 31
0.0
  0
LINE
  5
B72
330
BB4
100
AcDbEntity
  8
0
100
AcDbLine
 10
120.61989692551
 20
69.41571716144506
 30
0.0
 11
116.5718164811737
 21
70.07576946094503
 31
0.0
  0
LINE
  5
9D0
330
BB4
100
AcDbEntity
  8
0
100
AcDbLine
 10
116.5545764055592
 20
183.1135766443099
 30
0.0
 11
104.0469470110284
 21
185.1529734071578
 31
0.0
  0
LINE
  5
B73
330
BB4
100
AcDbEntity
  8
0
100
AcDbLine
 10
116.5718164811737
 20
70.07576946094503
 30
0.0
 11
104.0641870866429
 21
72.11516622379293
 31
0.0
  0
LINE
  5
9D1
330
BB4
100
AcDbEntity
  8
0
100
AcDbLine
 10
104.0469470110284
 20
185.1529734071578
 30
0.0
 11
104.0468325701105
 21
185.1529900964578
 31
0.0
  0
LINE
  5
B74
330
BB4
100
AcDbEntity
  8
0
100
AcDbLine
 10
104.0641870866429
 20
72.11516622379293
 30
0.0
 11
104.0640726457249
 21
72.11518291309301
 31
0.0
  0
LINE
  5
9D2
330
BB4
100
AcDbEntity
  8
0
100
AcDbLine
 10
104.0468325701105
 20
185.1529900964578
 30
0.0
 11
85.26139403251234
 21
187.6247756418079
 31
0.0
  0
LINE
  5
B75
330
BB4
100
AcDbEntity
  8
0
100
AcDbLine
 10
104.0640726457249
 20
72.11518291309301
 30
0.0
 11
85.27863410812678
 21
74.58696845844304
 31
0.0
  0
LINE
  5
9D3
330
BB4
100
AcDbEntity
  8
0
100
AcDbLine
 10
85.26139403251234
 20
187.6247756418079
 30
0.0
 11
85.26124144462126
 21
187.6247875627368
 31
0.0
  0
LINE
  5
B76
330
BB4
100
AcDbEntity
  8
0
100
AcDbLine
 10
85.27863410812678
 20
74.58696845844304
 30
0.0
 11
85.2784815202357
 21
74.586980379372
 31
0.0
  0
LINE
  5
9D4
330
BB4
100
AcDbEntity
  8
0
100
AcDbLine
 10
85.26124144462126
 20
187.6247875627368
 30
0.0
 11
65.95181609061736
 21
189.3733375009378
 31
0.0
  0
LINE
  5
B77
330
BB4
100
AcDbEntity
  8
0
100
AcDbLine
 10
85.2784815202357
 20
74.586980379372
 30
0.0
 11
65.9690561662318
 21
76.33553031757299
 31
0.0
  0
LINE
  5
9D5
330
BB4
100
AcDbEntity
  8
0
100
AcDbLine
 10
65.95181609061736
 20
189.3733375009378
 30
0.0
 11
65.95166350272764
 21
189.3733398851238
 31
0.0
  0
LINE
  5
B78
330
BB4
100
AcDbEntity
  8
0
100
AcDbLine
 10
65.9690561662318
 20
76.33553031757299
 30
0.0
 11
65.96890357834208
 21
76.335532701759
 31
0.0
  0
LINE
  5
9D6
330
BB4
100
AcDbEntity
  8
0
100
AcDbLine
 10
65.95166350272764
 20
189.3733398851238
 30
0.0
 11
48.06645537284437
 21
189.8947160180889
 31
0.0
  0
LINE
  5
B79
330
BB4
100
AcDbEntity
  8
0
100
AcDbLine
 10
65.96890357834208
 20
76.335532701759
 30
0.0
 11
48.08369544845881
 21
76.8569088347241
 31
0.0
  0
LINE
  5
9D7
330
BB4
100
AcDbEntity
  8
0
100
AcDbLine
 10
48.06645537284437
 20
189.8947160180889
 30
0.0
 11
33.57327605155531
 21
188.8086240228499
 31
0.0
  0
LINE
  5
B7A
330
BB4
100
AcDbEntity
  8
0
100
AcDbLine
 10
48.08369544845881
 20
76.8569088347241
 30
0.0
 11
33.59051612716975
 21
75.77081683948506
 31
0.0
  0
LINE
  5
9D8
330
BB4
100
AcDbEntity
  8
0
100
AcDbLine
 10
33.57327605155531
 20
188.8086240228499
 30
0.0
 11
33.57316161063734
 21
188.808614486107
 31
0.0
  0
LINE
  5
B7B
330
BB4
100
AcDbEntity
  8
0
100
AcDbLine
 10
33.59051612716975
 20
75.77081683948506
 30
0.0
 11
33.59040168625178
 21
75.77080730274213
 31
0.0
  0
LINE
  5
9D9
330
BB4
100
AcDbEntity
  8
0
100
AcDbLine
 10
33.57316161063734
 20
188.808614486107
 30
0.0
 11
23.42911864188734
 21
186.8664734300459
 31
0.0
  0
LINE
  5
B7C
330
BB4
100
AcDbEntity
  8
0
100
AcDbLine
 10
33.59040168625178
 20
75.77080730274213
 30
0.0
 11
23.44635871750178
 21
73.82866624668111
 31
0.0
  0
LINE
  5
9DA
330
BB4
100
AcDbEntity
  8
0
100
AcDbLine
 10
23.42911864188734
 20
186.8664734300459
 30
0.0
 11
17.21692229178922
 21
184.8307721551739
 31
0.0
  0
LINE
  5
B7D
330
BB4
100
AcDbEntity
  8
0
100
AcDbLine
 10
23.44635871750178
 20
73.82866624668111
 30
0.0
 11
17.23416236740366
 21
71.79296497180906
 31
0.0
  0
LINE
  5
9DB
330
BB4
100
AcDbEntity
  8
0
100
AcDbLine
 10
17.21692229178922
 20
184.8307721551739
 30
0.0
 11
13.86750365165341
 21
183.1066482004009
 31
0.0
  0
LINE
  5
B7E
330
BB4
100
AcDbEntity
  8
0
100
AcDbLine
 10
17.23416236740366
 20
71.79296497180906
 30
0.0
 11
13.88474372726785
 21
70.0688410170361
 31
0.0
  0
LINE
  5
9DC
330
BB4
100
AcDbEntity
  8
0
100
AcDbLine
 10
13.86750365165341
 20
183.1066482004009
 30
0.0
 11
12.28230620292248
 21
181.7954604562608
 31
0.0
  0
LINE
  5
B7F
330
BB4
100
AcDbEntity
  8
0
100
AcDbLine
 10
13.88474372726785
 20
70.0688410170361
 30
0.0
 11
12.29954627853692
 21
68.75765327289594
 31
0.0
  0
LINE
  5
9DD
330
BB4
100
AcDbEntity
  8
0
100
AcDbLine
 10
12.28230620292248
 20
181.7954604562608
 30
0.0
 11
11.64601469901669
 21
180.8527676996079
 31
0.0
  0
LINE
  5
B80
330
BB4
100
AcDbEntity
  8
0
100
AcDbLine
 10
12.29954627853692
 20
68.75765327289594
 30
0.0
 11
11.66325477463113
 21
67.8149605162431
 31
0.0
  0
LINE
  5
9DE
330
BB4
100
AcDbEntity
  8
0
100
AcDbLine
 10
11.64601469901669
 20
180.8527676996079
 30
0.0
 11
11.46058226493466
 21
180.1950662072979
 31
0.0
  0
LINE
  5
B81
330
BB4
100
AcDbEntity
  8
0
100
AcDbLine
 10
11.66325477463113
 20
67.8149605162431
 30
0.0
 11
11.4778223405491
 21
67.15725902393308
 31
0.0
  0
TEXT
  5
9DF
330
BB4
100
AcDbEntity
  8
0
100
AcDbText
 10
74.23992491630095
 20
176.4226767953712
 30
0.0
 40
8.0
  1
27
  7
textstyle15
100
AcDbText
  0
TEXT
  5
B82
330
BB4
100
AcDbEntity
  8
0
100
AcDbText
 10
74.25716499191539
 20
63.38486961200637
 30
0.0
 40
8.0
  1
27
  7
textstyle16
100
AcDbText
  0
LINE
  5
9E0
330
BB4
100
AcDbEntity
  8
0
100
AcDbLine
 10
172.0511383445316
 20
134.9046309057397
 30
0.0
 11
177.0511383445316
 21
134.9046309057392
 31
0.0
  0
LINE
  5
9E1
330
BB4
100
AcDbEntity
  8
0
100
AcDbLine
 10
120.4907745750003
 20
137.0955307546776
 30
0.0
 11
125.4907745750003
 21
137.0955307546772
 31
0.0
  0
LINE
  5
9E2
330
BB4
100
AcDbEntity
  8
0
100
AcDbLine
 10
242.6410946759833
 20
154.6559900264347
 30
0.0
 11
247.6410946759833
 21
154.6559900264343
 31
0.0
  0
LINE
  5
9E3
330
BB4
100
AcDbEntity
  8
0
100
AcDbLine
 10
191.0807309064521
 20
156.8468898753727
 30
0.0
 11
196.0807309064521
 21
156.8468898753723
 31
0.0
  0
LINE
  5
B83
330
BB4
100
AcDbEntity
  8
0
100
AcDbLine
 10
172.068378420146
 20
21.86682372237482
 30
0.0
 11
177.068378420146
 21
21.86682372237436
 31
0.0
  0
LINE
  5
B84
330
BB4
100
AcDbEntity
  8
0
100
AcDbLine
 10
120.5080146506148
 20
24.05772357131281
 30
0.0
 11
125.5080146506148
 21
24.05772357131235
 31
0.0
  0
LINE
  5
B85
330
BB4
100
AcDbEntity
  8
0
100
AcDbLine
 10
242.6583347515978
 20
41.6181828430699
 30
0.0
 11
247.6583347515978
 21
41.61818284306945
 31
0.0
  0
LINE
  5
B86
330
BB4
100
AcDbEntity
  8
0
100
AcDbLine
 10
191.0979709820665
 20
43.80908269200789
 30
0.0
 11
196.0979709820665
 21
43.80908269200744
 31
0.0
  0
LINE
  5
9E4
330
BB4
100
AcDbEntity
  8
0
100
AcDbLine
 10
112.0230975237233
 20
178.7802855905379
 30
0.0
 11
117.0230975237233
 21
178.7802855905379
 31
0.0
  0
LINE
  5
9E5
330
BB4
100
AcDbEntity
  8
0
100
AcDbLine
 10
60.46273375419248
 20
180.9711854394759
 30
0.0
 11
65.46273375419248
 21
180.9711854394759
 31
0.0
  0
LINE
  5
B87
330
BB4
100
AcDbEntity
  8
0
100
AcDbLine
 10
112.0403375993377
 20
65.74247840717305
 30
0.0
 11
117.0403375993377
 21
65.74247840717305
 31
0.0
  0
LINE
  5
B88
330
BB4
100
AcDbEntity
  8
0
100
AcDbLine
 10
60.47997382980692
 20
67.93337825611104
 30
0.0
 11
65.47997382980692
 21
67.93337825611104
 31
0.0
  0
LINE
  5
9E6
330
BB4
100
AcDbEntity
  8
0
100
AcDbLine
 10
44.76796573710971
 20
139.5470221105736
 30
0.0
 11
49.76796573710971
 21
139.5470221105732
 31
0.0
  0
LINE
  5
B89
330
BB4
100
AcDbEntity
  8
0
100
AcDbLine
 10
44.78520581272414
 20
26.5092149272088
 30
0.0
 11
49.78520581272414
 21
26.50921492720835
 31
0.0
  0
LINE
  5
9E7
330
BB4
100
AcDbEntity
  8
0
100
AcDbLine
 10
174.5511383445316
 20
137.4046261373676
 30
0.0
 11
174.5511383445316
 21
132.4046261373676
 31
0.0
  0
LINE
  5
9E8
330
BB4
100
AcDbEntity
  8
0
100
AcDbLine
 10
122.9907745750003
 20
139.5955259863056
 30
0.0
 11
122.9907745750003
 21
134.5955259863056
 31
0.0
  0
LINE
  5
9E9
330
BB4
100
AcDbEntity
  8
0
100
AcDbLine
 10
245.1410946759833
 20
157.1559852580627
 30
0.0
 11
245.1410946759833
 21
152.1559852580627
 31
0.0
  0
LINE
  5
9EA
330
BB4
100
AcDbEntity
  8
0
100
AcDbLine
 10
193.5807309064521
 20
159.3468851070007
 30
0.0
 11
193.5807309064521
 21
154.3468851070007
 31
0.0
  0
LINE
  5
B8A
330
BB4
100
AcDbEntity
  8
0
100
AcDbLine
 10
174.568378420146
 20
24.36681895400278
 30
0.0
 11
174.568378420146
 21
19.36681895400278
 31
0.0
  0
LINE
  5
B8B
330
BB4
100
AcDbEntity
  8
0
100
AcDbLine
 10
123.0080146506148
 20
26.55771880294077
 30
0.0
 11
123.0080146506148
 21
21.55771880294077
 31
0.0
  0
LINE
  5
B8C
330
BB4
100
AcDbEntity
  8
0
100
AcDbLine
 10
245.1583347515978
 20
44.11817807469787
 30
0.0
 11
245.1583347515978
 21
39.11817807469787
 31
0.0
  0
LINE
  5
B8D
330
BB4
100
AcDbEntity
  8
0
100
AcDbLine
 10
193.5979709820665
 20
46.30907792363585
 30
0.0
 11
193.5979709820665
 21
41.30907792363585
 31
0.0
  0
LINE
  5
9EB
330
BB4
100
AcDbEntity
  8
0
100
AcDbLine
 10
114.5230975237233
 20
181.2802808221658
 30
0.0
 11
114.5230975237233
 21
176.2802808221658
 31
0.0
  0
LINE
  5
9EC
330
BB4
100
AcDbEntity
  8
0
100
AcDbLine
 10
62.96273375419248
 20
183.4711806711038
 30
0.0
 11
62.96273375419248
 21
178.4711806711038
 31
0.0
  0
LINE
  5
B8E
330
BB4
100
AcDbEntity
  8
0
100
AcDbLine
 10
114.5403375993377
 20
68.24247363880102
 30
0.0
 11
114.5403375993377
 21
63.24247363880102
 31
0.0
  0
LINE
  5
B8F
330
BB4
100
AcDbEntity
  8
0
100
AcDbLine
 10
62.97997382980692
 20
70.433373487739
 30
0.0
 11
62.97997382980692
 21
65.433373487739
 31
0.0
  0
LINE
  5
9ED
330
BB4
100
AcDbEntity
  8
0
100
AcDbLine
 10
47.26796573710971
 20
142.0470173422016
 30
0.0
 11
47.26796573710971
 21
137.0470173422016
 31
0.0
  0
LINE
  5
B90
330
BB4
100
AcDbEntity
  8
0
100
AcDbLine
 10
47.28520581272414
 20
29.00921015883677
 30
0.0
 11
47.28520581272414
 21
24.00921015883677
 31
0.0
  0
CIRCLE
  5
9EE
330
BB4
100
AcDbEntity
  8
0
100
AcDbCircle
 10
122.9907745750003
 20
137.0955259863056
 30
0.0
 40
5.0
  0
CIRCLE
  5
9EF
330
BB4
100
AcDbEntity
  8
0
100
AcDbCircle
 10
193.5807309064521
 20
156.8468851070007
 30
0.0
 40
5.0
  0
CIRCLE
  5
9F0
330
BB4
100
AcDbEntity
  8
0
100
AcDbCircle
 10
62.96273375419248
 20
180.9711806711038
 30
0.0
 40
5.0
  0
CIRCLE
  5
B91
330
BB4
100
AcDbEntity
  8
0
100
AcDbCircle
 10
123.0080146506148
 20
24.05771880294077
 30
0.0
 40
5.0
  0
CIRCLE
  5
B92
330
BB4
100
AcDbEntity
  8
0
100
AcDbCircle
 10
193.5979709820665
 20
43.80907792363585
 30
0.0
 40
5.0
  0
CIRCLE
  5
B93
330
BB4
100
AcDbEntity
  8
0
100
AcDbCircle
 10
62.97997382980692
 20
67.933373487739
 30
0.0
 40
5.0
  0
MTEXT
  5
B96
330
BB4
100
AcDbEntity
  8
0
100
AcDbMText
 10
57.16656483861951
 20
96.69793663586088
 30
0.0
 40
4.0
 41
0.0
 46
0.0
 71
     7
 72
     1
  1
\H2.5;Second wing design (no kink in leading edge, 146mmm chord at tip)\P7 is exactly the same as first design\P27 is same as 16 of first design\P17 is new (simple half-way between 7 and 27)
  7
textstyle17
 73
     1
 44
1.5
  0
VIEWPORT
  5
C72
330
BB0
100
AcDbEntity
 67
     1
  8
0
100
AcDbViewport
 10
128.5
 20
97.5
 30
0.0
 40
314.226
 41
222.18
 68
     1
 69
     1
 12
128.5
 22
97.5
 13
0.0
 23
0.0
 14
10.0
 24
10.0
 15
10.0
 25
10.0
 16
0.0
 26
0.0
 36
1.0
 17
0.0
 27
0.0
 37
0.0
 42
50.0
 43
0.0
 44
0.0
 45
222.18
 50
0.0
 51
0.0
 72
   100
 90
   557152
  1

281
     0
 71
     1
 74
     0
110
0.0
120
0.0
130
0.0
111
1.0
121
0.0
131
0.0
112
0.0
122
1.0
132
0.0
 79
     0
146
0.0
170
     0
 61
     5
348
BC4
292
     1
282
     1
141
0.0
142
0.0
 63
   256
361
C73
  0
ENDSEC
  0
SECTION
  2
OBJECTS
  0
DICTIONARY
  5
BA2
330
0
100
AcDbDictionary
281
     1
  3
ACAD_DETAILVIEWSTYLE
350
C82
  3
ACAD_GROUP
350
BA3
  3
ACAD_LAYOUT
350
BAF
  3
ACAD_MATERIAL
350
BD8
  3
ACAD_MLEADERSTYLE
350
C00
  3
ACAD_MLINESTYLE
350
BAC
  3
ACAD_PLOTSETTINGS
350
BAE
  3
ACAD_PLOTSTYLENAME
350
BA4
  3
ACAD_SCALELIST
350
BDC
  3
ACAD_SECTIONVIEWSTYLE
350
C83
  3
ACAD_TABLESTYLE
350
BFE
  3
ACAD_VISUALSTYLE
350
BBF
  3
ACDB_RECOMPOSE_DATA
350
C7F
  3
AcDbVariableDictionary
350
C7B
  3
QCAD_OBJECTS
350
C04
  0
SUN
  5
C02
330
BBE
100
AcDbSun
 90
        1
290
     0
 63
     7
421
 16777215
 40
1.0
291
     1
 91
  2455826
 92
 54000000
292
     0
 70
     2
 71
   256
280
     1
  0
SUN
  5
C73
330
C72
100
AcDbSun
 90
        1
290
     0
 63
     7
421
 16777215
 40
1.0
291
     1
 91
  2455826
 92
 54000000
292
     0
 70
     2
 71
   256
280
     1
  0
DICTIONARY
  5
C82
102
{ACAD_REACTORS
330
BA2
102
}
330
BA2
100
AcDbDictionary
281
     1
  0
DICTIONARY
  5
BA3
102
{ACAD_REACTORS
330
BA2
102
}
330
BA2
100
AcDbDictionary
281
     1
  0
DICTIONARY
  5
BAF
102
{ACAD_REACTORS
330
BA2
102
}
330
BA2
100
AcDbDictionary
281
     1
  3
Layout1
350
BB3
  3
Model
350
BB7
  0
DICTIONARY
  5
BD8
102
{ACAD_REACTORS
330
BA2
102
}
330
BA2
100
AcDbDictionary
281
     1
  3
ByBlock
350
BDA
  3
ByLayer
350
BD9
  3
Global
350
BDB
  0
DICTIONARY
  5
C00
102
{ACAD_REACTORS
330
BA2
102
}
330
BA2
100
AcDbDictionary
281
     1
  3
Standard
350
C01
  0
DICTIONARY
  5
BAC
102
{ACAD_REACTORS
330
BA2
102
}
330
BA2
100
AcDbDictionary
281
     1
  3
Standard
350
BAD
  0
DICTIONARY
  5
BAE
102
{ACAD_REACTORS
330
BA2
102
}
330
BA2
100
AcDbDictionary
281
     1
  0
ACDBDICTIONARYWDFLT
  5
BA4
102
{ACAD_REACTORS
330
BA2
102
}
330
BA2
100
AcDbDictionary
281
     1
  3
Normal
350
BA5
100
AcDbDictionaryWithDefault
340
BA5
  0
DICTIONARY
  5
BDC
102
{ACAD_REACTORS
330
BA2
102
}
330
BA2
100
AcDbDictionary
281
     1
  3
A0
350
BDD
  3
A1
350
BDE
  3
A2
350
BDF
  3
A3
350
BE0
  3
A4
350
BE1
  3
A5
350
BE2
  3
A6
350
BE3
  3
A7
350
BE4
  3
A8
350
BE5
  3
A9
350
BE6
  3
B0
350
BE7
  3
B1
350
BE8
  3
B2
350
BE9
  3
B3
350
BEA
  3
B4
350
BEB
  3
B5
350
BEC
  3
B6
350
BED
  3
B7
350
BEE
  3
B8
350
BEF
  3
B9
350
BF0
  3
C0
350
BF1
  3
C1
350
BF2
  3
C2
350
BF3
  3
C3
350
BF4
  3
C4
350
BF5
  3
C5
350
BF6
  3
C6
350
BF7
  3
C7
350
BF8
  3
C8
350
BF9
  3
C9
350
BFA
  3
D0
350
BFB
  3
D1
350
BFC
  3
D2
350
BFD
  0
DICTIONARY
  5
C83
102
{ACAD_REACTORS
330
BA2
102
}
330
BA2
100
AcDbDictionary
281
     1
  0
DICTIONARY
  5
BFE
102
{ACAD_REACTORS
330
BA2
102
}
330
BA2
100
AcDbDictionary
281
     1
  3
Standard
350
BFF
  0
DICTIONARY
  5
BBF
102
{ACAD_REACTORS
330
BA2
102
}
330
BA2
100
AcDbDictionary
281
     1
  3
2dWireframe
350
BC4
  3
Basic
350
BC7
  3
Brighten
350
BCB
  3
ColorChange
350
BCF
  3
Conceptual
350
BC9
  3
Dim
350
BCA
  3
EdgeColorOff
350
BD2
  3
Facepattern
350
BCE
  3
Flat
350
BC0
  3
FlatWithEdges
350
BC1
  3
Gouraud
350
BC2
  3
GouraudWithEdges
350
BC3
  3
Hidden
350
BC6
  3
JitterOff
350
BD0
  3
Linepattern
350
BCD
  3
OverhangOff
350
BD1
  3
Realistic
350
BC8
  3
Shaded
350
BD7
  3
Shaded with edges
350
BD6
  3
Shades of Gray
350
BD3
  3
Sketchy
350
BD4
  3
Thicken
350
BCC
  3
Wireframe
350
BC5
  3
X-Ray
350
BD5
  0
XRECORD
  5
C7F
102
{ACAD_REACTORS
330
BA2
102
}
330
BA2
100
AcDbXrecord
280
     1
 90
        1
330
BFF
  0
DICTIONARY
  5
C7B
102
{ACAD_REACTORS
330
BA2
102
}
330
BA2
100
AcDbDictionary
281
     1
  3
CANNOSCALE
350
C7C
  3
CMLEADERSTYLE
350
C81
  3
CTABLESTYLE
350
C80
  0
DICTIONARY
  5
C04
102
{ACAD_REACTORS
330
BA2
102
}
330
BA2
100
AcDbDictionary
281
     1
  3
ColorSettings/BackgroundColor
350
C06
  3
ColorSettings/ColorMode
350
C07
  3
Grid/DisplayGrid00
350
C08
  3
Grid/DisplayGrid01
350
C09
  3
Grid/DisplayGrid02
350
C0A
  3
Grid/DisplayGrid03
350
C0B
  3
Grid/GridSpacingX00
350
C0C
  3
Grid/GridSpacingX01
350
C0D
  3
Grid/GridSpacingX02
350
C0E
  3
Grid/GridSpacingX03
350
C0F
  3
Grid/GridSpacingY00
350
C10
  3
Grid/GridSpacingY01
350
C11
  3
Grid/GridSpacingY02
350
C12
  3
Grid/GridSpacingY03
350
C13
  3
Grid/IsometricGrid00
350
C14
  3
Grid/IsometricGrid01
350
C15
  3
Grid/IsometricGrid02
350
C16
  3
Grid/IsometricGrid03
350
C17
  3
Grid/IsometricProjection00
350
C18
  3
Grid/IsometricProjection01
350
C19
  3
Grid/IsometricProjection02
350
C1A
  3
Grid/IsometricProjection03
350
C1B
  3
Grid/MetaGridSpacingX00
350
C1C
  3
Grid/MetaGridSpacingX01
350
C1D
  3
Grid/MetaGridSpacingX02
350
C1E
  3
Grid/MetaGridSpacingX03
350
C1F
  3
Grid/MetaGridSpacingY00
350
C20
  3
Grid/MetaGridSpacingY01
350
C21
  3
Grid/MetaGridSpacingY02
350
C22
  3
Grid/MetaGridSpacingY03
350
C23
  3
MultiPageSettings/Columns
350
C24
  3
MultiPageSettings/GlueMarginsBottom
350
C25
  3
MultiPageSettings/GlueMarginsLeft
350
C26
  3
MultiPageSettings/GlueMarginsRight
350
C27
  3
MultiPageSettings/GlueMarginsTop
350
C28
  3
MultiPageSettings/PrintCropMarks
350
C29
  3
MultiPageSettings/Rows
350
C2A
  3
PageSettings/OffsetX
350
C2B
  3
PageSettings/OffsetY
350
C2C
  3
PageSettings/PageOrientation
350
C2D
  3
PageSettings/PaperHeight
350
C2E
  3
PageSettings/PaperWidth
350
C2F
  3
PageSettings/Scale
350
C30
  3
PageSettings/ShowPaperBorders
350
C31
  3
QCADVersion
350
C05
  3
UnitSettings/PaperUnit
350
C32
  3
ViewportCenter
350
C33
  3
ViewportHeight
350
C34
  3
ViewportWidth
350
C35
  0
LAYOUT
  5
BB3
102
{ACAD_REACTORS
330
BAF
102
}
330
BAF
100
AcDbPlotSettings
  1

  2
none_device
  4
ISO_A4_(210.00_x_297.00_MM)
  6

 40
7.5
 41
20.0
 42
7.5
 43
20.0
 44
210.0
 45
297.0
 46
0.0
 47
0.0
 48
0.0
 49
0.0
140
0.0
141
0.0
142
1.0
143
1.0
 70
   672
 72
     1
 73
     1
 74
     5
  7

 75
    16
 76
     0
 77
     2
 78
   300
147
1.0
148
0.0
149
0.0
100
AcDbLayout
  1
Layout1
 70
     1
 71
     0
 10
-20.0
 20
-7.5
 11
277.0
 21
202.5
 12
0.0
 22
0.0
 32
0.0
 14
0.0
 24
0.0
 34
0.0
 15
0.0
 25
0.0
 35
0.0
146
0.0
 13
0.0
 23
0.0
 33
0.0
 16
1.0
 26
0.0
 36
0.0
 17
0.0
 27
1.0
 37
0.0
 76
     0
330
BB0
331
C72
  0
LAYOUT
  5
BB7
102
{ACAD_REACTORS
330
BAF
102
}
330
BAF
100
AcDbPlotSettings
  1

  2
none_device
  4
Letter_(8.50_x_11.00_Inches)
  6

 40
6.35
 41
6.35
 42
6.35000508
 43
6.35000508
 44
215.9
 45
279.4
 46
0.0
 47
0.0
 48
0.0
 49
0.0
140
0.0
141
0.0
142
1.0
143
1.0
 70
  1712
 72
     0
 73
     0
 74
     0
  7

 75
     0
 76
     0
 77
     2
 78
   300
147
1.0
148
0.0
149
0.0
100
AcDbLayout
  1
Model
 70
     1
 71
     0
 10
0.0
 20
0.0
 11
12.0
 21
9.0
 12
0.0
 22
0.0
 32
0.0
 14
11.46058226493466
 24
17.06747679854624
 34
0.0
 15
288.5566578106798
 25
189.8947160180889
 35
0.0
146
0.0
 13
0.0
 23
0.0
 33
0.0
 16
1.0
 26
0.0
 36
0.0
 17
0.0
 27
1.0
 37
0.0
 76
     0
330
BB4
331
BBE
  0
MATERIAL
  5
BDA
102
{ACAD_REACTORS
330
BD8
102
}
330
BD8
100
AcDbMaterial
  1
ByBlock
 72
     1
 94
      127
  0
MATERIAL
  5
BD9
102
{ACAD_REACTORS
330
BD8
102
}
330
BD8
100
AcDbMaterial
  1
ByLayer
 72
     1
 94
      127
  0
MATERIAL
  5
BDB
102
{ACAD_REACTORS
330
BD8
102
}
330
BD8
100
AcDbMaterial
  1
Global
 72
     1
 94
      127
  0
MLEADERSTYLE
  5
C01
102
{ACAD_REACTORS
330
C00
102
}
330
C00
100
AcDbMLeaderStyle
179
     2
170
     2
171
     1
172
     0
 90
        2
 40
0.0
 41
0.0
173
     1
 91
-1056964608
340
BA9
 92
       -2
290
     1
 42
0.09
291
     1
 43
0.36
  3
Standard
341
0
 44
0.18
300

342
BA7
174
     1
178
     6
175
     1
176
     0
 93
-1056964608
 45
0.18
292
     0
297
     0
 46
0.18
343
0
 94
-1056964608
 47
1.0
 49
1.0
140
1.0
293
     1
141
0.0
294
     1
177
     0
142
1.0
295
     0
296
     0
143
0.125
271
     0
272
     9
273
     9
298
     0
  0
MLINESTYLE
  5
BAD
102
{ACAD_REACTORS
330
BAC
102
}
330
BAC
100
AcDbMlineStyle
  2
Standard
 70
     0
  3

 62
   256
 51
90.0
 52
90.0
 71
     2
 49
0.5
 62
   256
  6
BYLAYER
 49
-0.5
 62
   256
  6
BYLAYER
  0
ACDBPLACEHOLDER
  5
BA5
102
{ACAD_REACTORS
330
BA4
102
}
330
BA4
  0
SCALE
  5
BDD
102
{ACAD_REACTORS
330
BDC
102
}
330
BDC
100
AcDbScale
 70
     0
300
1:1
140
1.0
141
1.0
290
     1
  0
SCALE
  5
BDE
102
{ACAD_REACTORS
330
BDC
102
}
330
BDC
100
AcDbScale
 70
     0
300
1:2
140
1.0
141
2.0
290
     0
  0
SCALE
  5
BDF
102
{ACAD_REACTORS
330
BDC
102
}
330
BDC
100
AcDbScale
 70
     0
300
1:4
140
1.0
141
4.0
290
     0
  0
SCALE
  5
BE0
102
{ACAD_REACTORS
330
BDC
102
}
330
BDC
100
AcDbScale
 70
     0
300
1:5
140
1.0
141
5.0
290
     0
  0
SCALE
  5
BE1
102
{ACAD_REACTORS
330
BDC
102
}
330
BDC
100
AcDbScale
 70
     0
300
1:8
140
1.0
141
8.0
290
     0
  0
SCALE
  5
BE2
102
{ACAD_REACTORS
330
BDC
102
}
330
BDC
100
AcDbScale
 70
     0
300
1:10
140
1.0
141
10.0
290
     0
  0
SCALE
  5
BE3
102
{ACAD_REACTORS
330
BDC
102
}
330
BDC
100
AcDbScale
 70
     0
300
1:16
140
1.0
141
16.0
290
     0
  0
SCALE
  5
BE4
102
{ACAD_REACTORS
330
BDC
102
}
330
BDC
100
AcDbScale
 70
     0
300
1:20
140
1.0
141
20.0
290
     0
  0
SCALE
  5
BE5
102
{ACAD_REACTORS
330
BDC
102
}
330
BDC
100
AcDbScale
 70
     0
300
1:30
140
1.0
141
30.0
290
     0
  0
SCALE
  5
BE6
102
{ACAD_REACTORS
330
BDC
102
}
330
BDC
100
AcDbScale
 70
     0
300
1:40
140
1.0
141
40.0
290
     0
  0
SCALE
  5
BE7
102
{ACAD_REACTORS
330
BDC
102
}
330
BDC
100
AcDbScale
 70
     0
300
1:50
140
1.0
141
50.0
290
     0
  0
SCALE
  5
BE8
102
{ACAD_REACTORS
330
BDC
102
}
330
BDC
100
AcDbScale
 70
     0
300
1:100
140
1.0
141
100.0
290
     0
  0
SCALE
  5
BE9
102
{ACAD_REACTORS
330
BDC
102
}
330
BDC
100
AcDbScale
 70
     0
300
2:1
140
2.0
141
1.0
290
     0
  0
SCALE
  5
BEA
102
{ACAD_REACTORS
330
BDC
102
}
330
BDC
100
AcDbScale
 70
     0
300
4:1
140
4.0
141
1.0
290
     0
  0
SCALE
  5
BEB
102
{ACAD_REACTORS
330
BDC
102
}
330
BDC
100
AcDbScale
 70
     0
300
8:1
140
8.0
141
1.0
290
     0
  0
SCALE
  5
BEC
102
{ACAD_REACTORS
330
BDC
102
}
330
BDC
100
AcDbScale
 70
     0
300
10:1
140
10.0
141
1.0
290
     0
  0
SCALE
  5
BED
102
{ACAD_REACTORS
330
BDC
102
}
330
BDC
100
AcDbScale
 70
     0
300
100:1
140
100.0
141
1.0
290
     0
  0
SCALE
  5
BEE
102
{ACAD_REACTORS
330
BDC
102
}
330
BDC
100
AcDbScale
 70
     0
300
1/128" = 1'-0"
140
0.0078125
141
12.0
290
     0
  0
SCALE
  5
BEF
102
{ACAD_REACTORS
330
BDC
102
}
330
BDC
100
AcDbScale
 70
     0
300
1/64" = 1'-0"
140
0.015625
141
12.0
290
     0
  0
SCALE
  5
BF0
102
{ACAD_REACTORS
330
BDC
102
}
330
BDC
100
AcDbScale
 70
     0
300
1/32" = 1'-0"
140
0.03125
141
12.0
290
     0
  0
SCALE
  5
BF1
102
{ACAD_REACTORS
330
BDC
102
}
330
BDC
100
AcDbScale
 70
     0
300
1/16" = 1'-0"
140
0.0625
141
12.0
290
     0
  0
SCALE
  5
BF2
102
{ACAD_REACTORS
330
BDC
102
}
330
BDC
100
AcDbScale
 70
     0
300
3/32" = 1'-0"
140
0.09375
141
12.0
290
     0
  0
SCALE
  5
BF3
102
{ACAD_REACTORS
330
BDC
102
}
330
BDC
100
AcDbScale
 70
     0
300
1/8" = 1'-0"
140
0.125
141
12.0
290
     0
  0
SCALE
  5
BF4
102
{ACAD_REACTORS
330
BDC
102
}
330
BDC
100
AcDbScale
 70
     0
300
3/16" = 1'-0"
140
0.1875
141
12.0
290
     0
  0
SCALE
  5
BF5
102
{ACAD_REACTORS
330
BDC
102
}
330
BDC
100
AcDbScale
 70
     0
300
1/4" = 1'-0"
140
0.25
141
12.0
290
     0
  0
SCALE
  5
BF6
102
{ACAD_REACTORS
330
BDC
102
}
330
BDC
100
AcDbScale
 70
     0
300
3/8" = 1'-0"
140
0.375
141
12.0
290
     0
  0
SCALE
  5
BF7
102
{ACAD_REACTORS
330
BDC
102
}
330
BDC
100
AcDbScale
 70
     0
300
1/2" = 1'-0"
140
0.5
141
12.0
290
     0
  0
SCALE
  5
BF8
102
{ACAD_REACTORS
330
BDC
102
}
330
BDC
100
AcDbScale
 70
     0
300
3/4" = 1'-0"
140
0.75
141
12.0
290
     0
  0
SCALE
  5
BF9
102
{ACAD_REACTORS
330
BDC
102
}
330
BDC
100
AcDbScale
 70
     0
300
1" = 1'-0"
140
1.0
141
12.0
290
     0
  0
SCALE
  5
BFA
102
{ACAD_REACTORS
330
BDC
102
}
330
BDC
100
AcDbScale
 70
     0
300
1-1/2" = 1'-0"
140
1.5
141
12.0
290
     0
  0
SCALE
  5
BFB
102
{ACAD_REACTORS
330
BDC
102
}
330
BDC
100
AcDbScale
 70
     0
300
3" = 1'-0"
140
3.0
141
12.0
290
     0
  0
SCALE
  5
BFC
102
{ACAD_REACTORS
330
BDC
102
}
330
BDC
100
AcDbScale
 70
     0
300
6" = 1'-0"
140
6.0
141
12.0
290
     0
  0
SCALE
  5
BFD
102
{ACAD_REACTORS
330
BDC
102
}
330
BDC
100
AcDbScale
 70
     0
300
1'-0" = 1'-0"
140
12.0
141
12.0
290
     0
  0
TABLESTYLE
  5
BFF
102
{ACAD_REACTORS
330
BFE
102
}
102
{ACAD_XDICTIONARY
360
C7D
102
}
330
BFE
100
AcDbTableStyle
  3
Standard
 70
     0
 71
     0
 40
0.06
 41
0.06
280
     0
281
     0
  7
Standard
140
0.18
170
     2
 62
     0
 63
   257
283
     0
 90
        4
 91
        0
  1

274
    -2
284
     1
 64
     0
275
    -2
285
     1
 65
     0
276
    -2
286
     1
 66
     0
277
    -2
287
     1
 67
     0
278
    -2
288
     1
 68
     0
279
    -2
289
     1
 69
     0
  7
Standard
140
0.25
170
     5
 62
     0
 63
   257
283
     0
 90
        4
 91
        0
  1

274
    -2
284
     1
 64
     0
275
    -2
285
     1
 65
     0
276
    -2
286
     1
 66
     0
277
    -2
287
     1
 67
     0
278
    -2
288
     1
 68
     0
279
    -2
289
     1
 69
     0
  7
Standard
140
0.18
170
     5
 62
     0
 63
   257
283
     0
 90
        4
 91
        0
  1

274
    -2
284
     1
 64
     0
275
    -2
285
     1
 65
     0
276
    -2
286
     1
 66
     0
277
    -2
287
     1
 67
     0
278
    -2
288
     1
 68
     0
279
    -2
289
     1
 69
     0
  0
VISUALSTYLE
  5
BC4
102
{ACAD_REACTORS
330
BBF
102
}
330
BBF
100
AcDbVisualStyle
  2
2dWireframe
 70
     4
177
     3
291
     0
 70
    58
 90
        0
176
     1
 90
        2
176
     1
 90
        0
176
     1
 90
        0
176
     1
 40
0.6
176
     1
 40
30.0
176
     1
 62
     7
420
 16777215
176
     1
 90
        1
176
     1
 90
        4
176
     1
 62
     7
176
     1
 62
   257
176
     1
 90
        1
176
     1
 90
        1
176
     1
 40
1.0
176
     1
 90
        0
176
     1
 62
   257
176
     1
 40
1.0
176
     1
 90
        1
176
     1
 90
        6
176
     1
 90
        2
176
     1
 62
     7
176
     1
 90
        5
176
     1
 90
        0
176
     1
 90
        0
176
     1
290
     0
176
     1
 90
        1
176
     1
 40
0.0
176
     1
 90
        0
176
     1
290
     1
176
     1
290
     1
176
     1
290
     0
176
     1
290
     0
176
     1
290
     0
176
     1
290
     0
176
     1
290
     0
176
     1
290
     0
176
     1
290
     0
176
     1
 90
       50
176
     1
 40
0.0
176
     1
 40
1.0
176
     1
 90
        0
176
     1
 62
   178
420
        0
176
     1
 90
       50
176
     1
 90
        3
176
     1
 62
     5
420
      255
176
     1
290
     0
176
     1
 90
       50
176
     1
 90
       50
176
     1
 90
       50
176
     1
290
     0
176
     1
 90
       50
176
     1
 62
   256
176
     0
 40
1.0
176
     0
 90
        2
176
     1
  1
strokes_ogs.tif
176
     1
290
     0
176
     1
 40
1.0
176
     1
 40
1.0
176
     1
  0
VISUALSTYLE
  5
BC7
102
{ACAD_REACTORS
330
BBF
102
}
330
BBF
100
AcDbVisualStyle
  2
Basic
 70
     7
177
     3
291
     1
 70
    58
 90
        1
176
     1
 90
        0
176
     1
 90
        1
176
     1
 90
        0
176
     1
 40
0.6
176
     1
 40
30.0
176
     1
 62
     7
420
 16777215
176
     1
 90
        0
176
     1
 90
        4
176
     1
 62
     7
176
     1
 62
   257
176
     1
 90
        1
176
     1
 90
        1
176
     1
 40
1.0
176
     1
 90
        8
176
     1
 62
     7
176
     1
 40
1.0
176
     1
 90
        1
176
     1
 90
        6
176
     1
 90
        2
176
     1
 62
     7
176
     1
 90
        5
176
     1
 90
        0
176
     1
 90
        0
176
     1
290
     0
176
     1
 90
        1
176
     1
 40
0.0
176
     1
 90
        0
176
     1
290
     0
176
     1
290
     1
176
     1
290
     1
176
     1
290
     0
176
     1
290
     0
176
     1
290
     0
176
     1
290
     0
176
     1
290
     0
176
     1
290
     0
176
     1
 90
       50
176
     1
 40
0.0
176
     1
 40
1.0
176
     1
 90
        0
176
     1
 62
   178
420
        0
176
     1
 90
       50
176
     1
 90
        3
176
     1
 62
     5
420
      255
176
     1
290
     0
176
     1
 90
       50
176
     1
 90
       50
176
     1
 90
       50
176
     1
290
     0
176
     1
 90
       50
176
     1
 62
   256
176
     0
 40
1.0
176
     0
 90
        2
176
     1
  1
strokes_ogs.tif
176
     1
290
     0
176
     1
 40
1.0
176
     1
 40
1.0
176
     1
  0
VISUALSTYLE
  5
BCB
102
{ACAD_REACTORS
330
BBF
102
}
330
BBF
100
AcDbVisualStyle
  2
Brighten
 70
    12
177
     3
291
     1
 70
    58
 90
        2
176
     1
 90
        2
176
     1
 90
        0
176
     1
 90
        0
176
     1
 40
0.6
176
     1
 40
30.0
176
     1
 62
     7
420
 16777215
176
     1
 90
        1
176
     1
 90
        4
176
     1
 62
     7
176
     1
 62
   257
176
     1
 90
        1
176
     1
 90
        1
176
     1
 40
1.0
176
     1
 90
        8
176
     1
 62
     7
176
     1
 40
1.0
176
     1
 90
        1
176
     1
 90
        6
176
     1
 90
        2
176
     1
 62
     7
176
     1
 90
        5
176
     1
 90
        0
176
     1
 90
        0
176
     1
290
     0
176
     1
 90
        1
176
     1
 40
50.0
176
     1
 90
        0
176
     1
290
     0
176
     1
290
     1
176
     1
290
     1
176
     1
290
     0
176
     1
290
     0
176
     1
290
     0
176
     1
290
     0
176
     1
290
     0
176
     1
290
     0
176
     1
 90
       50
176
     1
 40
0.0
176
     1
 40
1.0
176
     1
 90
        0
176
     1
 62
   178
420
        0
176
     1
 90
       50
176
     1
 90
        3
176
     1
 62
     5
420
      255
176
     1
290
     0
176
     1
 90
       50
176
     1
 90
       50
176
     1
 90
       50
176
     1
290
     0
176
     1
 90
       50
176
     1
 62
   256
176
     0
 40
1.0
176
     0
 90
        2
176
     1
  1
strokes_ogs.tif
176
     1
290
     0
176
     1
 40
1.0
176
     1
 40
1.0
176
     1
  0
VISUALSTYLE
  5
BCF
102
{ACAD_REACTORS
330
BBF
102
}
330
BBF
100
AcDbVisualStyle
  2
ColorChange
 70
    16
177
     3
291
     1
 70
    58
 90
        2
176
     1
 90
        2
176
     1
 90
        3
176
     1
 90
        0
176
     1
 40
0.6
176
     1
 40
30.0
176
     1
 62
     8
420
  8421504
176
     1
 90
        1
176
     1
 90
        4
176
     1
 62
     7
176
     1
 62
   257
176
     1
 90
        1
176
     1
 90
        1
176
     1
 40
1.0
176
     1
 90
        8
176
     1
 62
     8
420
  8421504
176
     1
 40
1.0
176
     1
 90
        1
176
     1
 90
        6
176
     1
 90
        2
176
     1
 62
     7
176
     1
 90
        5
176
     1
 90
        0
176
     1
 90
        0
176
     1
290
     0
176
     1
 90
        1
176
     1
 40
0.0
176
     1
 90
        0
176
     1
290
     0
176
     1
290
     1
176
     1
290
     1
176
     1
290
     0
176
     1
290
     0
176
     1
290
     0
176
     1
290
     0
176
     1
290
     0
176
     1
290
     0
176
     1
 90
       50
176
     1
 40
0.0
176
     1
 40
1.0
176
     1
 90
        0
176
     1
 62
   178
420
        0
176
     1
 90
       50
176
     1
 90
        3
176
     1
 62
     5
420
      255
176
     1
290
     0
176
     1
 90
       50
176
     1
 90
       50
176
     1
 90
       50
176
     1
290
     0
176
     1
 90
       50
176
     1
 62
   256
176
     0
 40
1.0
176
     0
 90
        2
176
     1
  1
strokes_ogs.tif
176
     1
290
     0
176
     1
 40
1.0
176
     1
 40
1.0
176
     1
  0
VISUALSTYLE
  5
BC9
102
{ACAD_REACTORS
330
BBF
102
}
330
BBF
100
AcDbVisualStyle
  2
Conceptual
 70
     9
177
     3
291
     0
 70
    58
 90
        3
176
     1
 90
        2
176
     1
 90
        0
176
     1
 90
        0
176
     1
 40
0.6
176
     1
 40
30.0
176
     1
 62
     7
420
 16777215
176
     1
 90
        2
176
     1
 90
        2
176
     1
 62
     7
176
     1
 62
   257
176
     1
 90
        1
176
     1
 90
        1
176
     1
 40
179.0
176
     1
 90
        8
176
     1
 62
     7
176
     1
 40
1.0
176
     1
 90
        1
176
     1
 90
        6
176
     1
 90
        2
176
     1
 62
     7
176
     1
 90
        3
176
     1
 90
        0
176
     1
 90
        0
176
     1
290
     0
176
     1
 90
        1
176
     1
 40
0.0
176
     1
 90
        0
176
     1
290
     0
176
     1
290
     1
176
     1
290
     1
176
     1
290
     0
176
     1
290
     0
176
     1
290
     0
176
     1
290
     0
176
     1
290
     0
176
     1
290
     0
176
     1
 90
       50
176
     1
 40
0.0
176
     1
 40
1.0
176
     1
 90
        0
176
     1
 62
   178
420
        0
176
     1
 90
       50
176
     1
 90
        3
176
     1
 62
     5
420
      255
176
     1
290
     0
176
     1
 90
       50
176
     1
 90
       50
176
     1
 90
       50
176
     1
290
     0
176
     1
 90
       50
176
     1
 62
   256
176
     0
 40
1.0
176
     0
 90
        2
176
     1
  1
strokes_ogs.tif
176
     1
290
     0
176
     1
 40
1.0
176
     1
 40
1.0
176
     1
  0
VISUALSTYLE
  5
BCA
102
{ACAD_REACTORS
330
BBF
102
}
330
BBF
100
AcDbVisualStyle
  2
Dim
 70
    11
177
     3
291
     1
 70
    58
 90
        2
176
     1
 90
        2
176
     1
 90
        0
176
     1
 90
        0
176
     1
 40
0.6
176
     1
 40
30.0
176
     1
 62
     7
420
 16777215
176
     1
 90
        1
176
     1
 90
        4
176
     1
 62
     7
176
     1
 62
   257
176
     1
 90
        1
176
     1
 90
        1
176
     1
 40
1.0
176
     1
 90
        8
176
     1
 62
     7
176
     1
 40
1.0
176
     1
 90
        1
176
     1
 90
        6
176
     1
 90
        2
176
     1
 62
     7
176
     1
 90
        5
176
     1
 90
        0
176
     1
 90
        0
176
     1
290
     0
176
     1
 90
        1
176
     1
 40
-50.0
176
     1
 90
        0
176
     1
290
     0
176
     1
290
     1
176
     1
290
     1
176
     1
290
     0
176
     1
290
     0
176
     1
290
     0
176
     1
290
     0
176
     1
290
     0
176
     1
290
     0
176
     1
 90
       50
176
     1
 40
0.0
176
     1
 40
1.0
176
     1
 90
        0
176
     1
 62
   178
420
        0
176
     1
 90
       50
176
     1
 90
        3
176
     1
 62
     5
420
      255
176
     1
290
     0
176
     1
 90
       50
176
     1
 90
       50
176
     1
 90
       50
176
     1
290
     0
176
     1
 90
       50
176
     1
 62
   256
176
     0
 40
1.0
176
     0
 90
        2
176
     1
  1
strokes_ogs.tif
176
     1
290
     0
176
     1
 40
1.0
176
     1
 40
1.0
176
     1
  0
VISUALSTYLE
  5
BD2
102
{ACAD_REACTORS
330
BBF
102
}
330
BBF
100
AcDbVisualStyle
  2
EdgeColorOff
 70
    22
177
     3
291
     1
 70
    58
 90
        2
176
     0
 90
        2
176
     0
 90
        0
176
     0
 90
        0
176
     0
 40
0.6
176
     0
 40
30.0
176
     0
 62
     7
420
 16777215
176
     0
 90
        1
176
     0
 90
        4
176
     0
 62
     7
176
     0
 62
   257
176
     0
 90
        1
176
     0
 90
        1
176
     0
 40
1.0
176
     0
 90
        8
176
     2
 62
     7
176
     0
 40
1.0
176
     0
 90
        1
176
     0
 90
        6
176
     0
 90
        2
176
     0
 62
     7
176
     0
 90
        5
176
     0
 90
        0
176
     0
 90
        0
176
     0
290
     0
176
     0
 90
        1
176
     0
 40
0.0
176
     0
 90
        0
176
     0
290
     0
176
     0
290
     1
176
     0
290
     1
176
     0
290
     0
176
     0
290
     0
176
     0
290
     0
176
     0
290
     0
176
     0
290
     0
176
     0
290
     0
176
     0
 90
       50
176
     0
 40
0.0
176
     0
 40
1.0
176
     0
 90
        0
176
     0
 62
   178
420
        0
176
     0
 90
       50
176
     0
 90
        3
176
     0
 62
     5
420
      255
176
     0
290
     0
176
     0
 90
       50
176
     0
 90
       50
176
     0
 90
       50
176
     0
290
     0
176
     0
 90
       50
176
     0
 62
   256
176
     0
 40
1.0
176
     0
 90
        2
176
     0
  1
strokes_ogs.tif
176
     0
290
     0
176
     0
 40
1.0
176
     0
 40
1.0
176
     0
  0
VISUALSTYLE
  5
BCE
102
{ACAD_REACTORS
330
BBF
102
}
330
BBF
100
AcDbVisualStyle
  2
Facepattern
 70
    15
177
     3
291
     1
 70
    58
 90
        2
176
     1
 90
        2
176
     1
 90
        0
176
     1
 90
        0
176
     1
 40
0.6
176
     1
 40
30.0
176
     1
 62
     7
420
 16777215
176
     1
 90
        1
176
     1
 90
        4
176
     1
 62
     7
176
     1
 62
   257
176
     1
 90
        1
176
     1
 90
        1
176
     1
 40
1.0
176
     1
 90
        8
176
     1
 62
     7
176
     1
 40
1.0
176
     1
 90
        1
176
     1
 90
        6
176
     1
 90
        2
176
     1
 62
     7
176
     1
 90
        5
176
     1
 90
        0
176
     1
 90
        0
176
     1
290
     0
176
     1
 90
        1
176
     1
 40
0.0
176
     1
 90
        0
176
     1
290
     0
176
     1
290
     1
176
     1
290
     1
176
     1
290
     0
176
     1
290
     0
176
     1
290
     0
176
     1
290
     0
176
     1
290
     0
176
     1
290
     0
176
     1
 90
       50
176
     1
 40
0.0
176
     1
 40
1.0
176
     1
 90
        0
176
     1
 62
   178
420
        0
176
     1
 90
       50
176
     1
 90
        3
176
     1
 62
     5
420
      255
176
     1
290
     0
176
     1
 90
       50
176
     1
 90
       50
176
     1
 90
       50
176
     1
290
     0
176
     1
 90
       50
176
     1
 62
   256
176
     0
 40
1.0
176
     0
 90
        2
176
     1
  1
strokes_ogs.tif
176
     1
290
     0
176
     1
 40
1.0
176
     1
 40
1.0
176
     1
  0
VISUALSTYLE
  5
BC0
102
{ACAD_REACTORS
330
BBF
102
}
330
BBF
100
AcDbVisualStyle
  2
Flat
 70
     0
177
     3
291
     1
 70
    58
 90
        2
176
     1
 90
        1
176
     1
 90
        1
176
     1
 90
        2
176
     1
 40
0.6
176
     1
 40
30.0
176
     1
 62
     7
420
 16777215
176
     1
 90
        0
176
     1
 90
        0
176
     1
 62
     7
176
     1
 62
   257
176
     1
 90
        1
176
     1
 90
        1
176
     1
 40
1.0
176
     1
 90
        8
176
     1
 62
     7
176
     1
 40
1.0
176
     1
 90
        1
176
     1
 90
        6
176
     1
 90
        2
176
     1
 62
     7
176
     1
 90
        5
176
     1
 90
        0
176
     1
 90
        0
176
     1
290
     0
176
     1
 90
       13
176
     1
 40
0.0
176
     1
 90
        0
176
     1
290
     0
176
     1
290
     1
176
     1
290
     1
176
     1
290
     0
176
     1
290
     0
176
     1
290
     0
176
     1
290
     0
176
     1
290
     0
176
     1
290
     0
176
     1
 90
       50
176
     1
 40
0.0
176
     1
 40
1.0
176
     1
 90
        0
176
     1
 62
   178
420
        0
176
     1
 90
       50
176
     1
 90
        3
176
     1
 62
     5
420
      255
176
     1
290
     0
176
     1
 90
       50
176
     1
 90
       50
176
     1
 90
       50
176
     1
290
     0
176
     1
 90
       50
176
     1
 62
   256
176
     0
 40
1.0
176
     0
 90
        2
176
     1
  1
strokes_ogs.tif
176
     1
290
     0
176
     1
 40
1.0
176
     1
 40
1.0
176
     1
  0
VISUALSTYLE
  5
BC1
102
{ACAD_REACTORS
330
BBF
102
}
330
BBF
100
AcDbVisualStyle
  2
FlatWithEdges
 70
     1
177
     3
291
     1
 70
    58
 90
        2
176
     1
 90
        1
176
     1
 90
        1
176
     1
 90
        2
176
     1
 40
0.6
176
     1
 40
30.0
176
     1
 62
     7
420
 16777215
176
     1
 90
        1
176
     1
 90
        0
176
     1
 62
     7
176
     1
 62
   257
176
     1
 90
        1
176
     1
 90
        1
176
     1
 40
1.0
176
     1
 90
        0
176
     1
 62
   257
176
     1
 40
1.0
176
     1
 90
        1
176
     1
 90
        6
176
     1
 90
        2
176
     1
 62
     7
176
     1
 90
        5
176
     1
 90
        0
176
     1
 90
        0
176
     1
290
     0
176
     1
 90
       13
176
     1
 40
0.0
176
     1
 90
        0
176
     1
290
     0
176
     1
290
     1
176
     1
290
     1
176
     1
290
     0
176
     1
290
     0
176
     1
290
     0
176
     1
290
     0
176
     1
290
     0
176
     1
290
     0
176
     1
 90
       50
176
     1
 40
0.0
176
     1
 40
1.0
176
     1
 90
        0
176
     1
 62
   178
420
        0
176
     1
 90
       50
176
     1
 90
        3
176
     1
 62
     5
420
      255
176
     1
290
     0
176
     1
 90
       50
176
     1
 90
       50
176
     1
 90
       50
176
     1
290
     0
176
     1
 90
       50
176
     1
 62
   256
176
     0
 40
1.0
176
     0
 90
        2
176
     1
  1
strokes_ogs.tif
176
     1
290
     0
176
     1
 40
1.0
176
     1
 40
1.0
176
     1
  0
VISUALSTYLE
  5
BC2
102
{ACAD_REACTORS
330
BBF
102
}
330
BBF
100
AcDbVisualStyle
  2
Gouraud
 70
     2
177
     3
291
     1
 70
    58
 90
        2
176
     1
 90
        2
176
     1
 90
        1
176
     1
 90
        2
176
     1
 40
0.6
176
     1
 40
30.0
176
     1
 62
     7
420
 16777215
176
     1
 90
        0
176
     1
 90
        0
176
     1
 62
     7
176
     1
 62
   257
176
     1
 90
        1
176
     1
 90
        1
176
     1
 40
1.0
176
     1
 90
        0
176
     1
 62
     7
176
     1
 40
1.0
176
     1
 90
        1
176
     1
 90
        6
176
     1
 90
        2
176
     1
 62
     7
176
     1
 90
        5
176
     1
 90
        0
176
     1
 90
        0
176
     1
290
     0
176
     1
 90
       13
176
     1
 40
0.0
176
     1
 90
        0
176
     1
290
     0
176
     1
290
     1
176
     1
290
     1
176
     1
290
     0
176
     1
290
     0
176
     1
290
     0
176
     1
290
     0
176
     1
290
     0
176
     1
290
     0
176
     1
 90
       50
176
     1
 40
0.0
176
     1
 40
1.0
176
     1
 90
        0
176
     1
 62
   178
420
        0
176
     1
 90
       50
176
     1
 90
        3
176
     1
 62
     5
420
      255
176
     1
290
     0
176
     1
 90
       50
176
     1
 90
       50
176
     1
 90
       50
176
     1
290
     0
176
     1
 90
       50
176
     1
 62
   256
176
     0
 40
1.0
176
     0
 90
        2
176
     1
  1
strokes_ogs.tif
176
     1
290
     0
176
     1
 40
1.0
176
     1
 40
1.0
176
     1
  0
VISUALSTYLE
  5
BC3
102
{ACAD_REACTORS
330
BBF
102
}
330
BBF
100
AcDbVisualStyle
  2
GouraudWithEdges
 70
     3
177
     3
291
     1
 70
    58
 90
        2
176
     1
 90
        2
176
     1
 90
        1
176
     1
 90
        2
176
     1
 40
0.6
176
     1
 40
30.0
176
     1
 62
     7
420
 16777215
176
     1
 90
        1
176
     1
 90
        0
176
     1
 62
     7
176
     1
 62
   257
176
     1
 90
        1
176
     1
 90
        1
176
     1
 40
1.0
176
     1
 90
        0
176
     1
 62
   257
176
     1
 40
1.0
176
     1
 90
        1
176
     1
 90
        6
176
     1
 90
        2
176
     1
 62
     7
176
     1
 90
        5
176
     1
 90
        0
176
     1
 90
        0
176
     1
290
     0
176
     1
 90
       13
176
     1
 40
0.0
176
     1
 90
        0
176
     1
290
     0
176
     1
290
     1
176
     1
290
     1
176
     1
290
     0
176
     1
290
     0
176
     1
290
     0
176
     1
290
     0
176
     1
290
     0
176
     1
290
     0
176
     1
 90
       50
176
     1
 40
0.0
176
     1
 40
1.0
176
     1
 90
        0
176
     1
 62
   178
420
        0
176
     1
 90
       50
176
     1
 90
        3
176
     1
 62
     5
420
      255
176
     1
290
     0
176
     1
 90
       50
176
     1
 90
       50
176
     1
 90
       50
176
     1
290
     0
176
     1
 90
       50
176
     1
 62
   256
176
     0
 40
1.0
176
     0
 90
        2
176
     1
  1
strokes_ogs.tif
176
     1
290
     0
176
     1
 40
1.0
176
     1
 40
1.0
176
     1
  0
VISUALSTYLE
  5
BC6
102
{ACAD_REACTORS
330
BBF
102
}
330
BBF
100
AcDbVisualStyle
  2
Hidden
 70
     6
177
     3
291
     0
 70
    58
 90
        1
176
     1
 90
        2
176
     1
 90
        2
176
     1
 90
        0
176
     1
 40
0.6
176
     1
 40
30.0
176
     1
 62
     7
420
 16777215
176
     1
 90
        2
176
     1
 90
        2
176
     1
 62
     7
176
     1
 62
   257
176
     1
 90
        2
176
     1
 90
        1
176
     1
 40
40.0
176
     1
 90
        0
176
     1
 62
   257
176
     1
 40
1.0
176
     1
 90
        1
176
     1
 90
        6
176
     1
 90
        2
176
     1
 62
     7
176
     1
 90
        3
176
     1
 90
        0
176
     1
 90
        0
176
     1
290
     0
176
     1
 90
        1
176
     1
 40
0.0
176
     1
 90
        0
176
     1
290
     0
176
     1
290
     1
176
     1
290
     1
176
     1
290
     0
176
     1
290
     0
176
     1
290
     0
176
     1
290
     0
176
     1
290
     0
176
     1
290
     0
176
     1
 90
       50
176
     1
 40
0.0
176
     1
 40
1.0
176
     1
 90
        0
176
     1
 62
   178
420
        0
176
     1
 90
       50
176
     1
 90
        3
176
     1
 62
     5
420
      255
176
     1
290
     0
176
     1
 90
       50
176
     1
 90
       50
176
     1
 90
       50
176
     1
290
     0
176
     1
 90
       50
176
     1
 62
   256
176
     0
 40
1.0
176
     0
 90
        2
176
     1
  1
strokes_ogs.tif
176
     1
290
     0
176
     1
 40
1.0
176
     1
 40
1.0
176
     1
  0
VISUALSTYLE
  5
BD0
102
{ACAD_REACTORS
330
BBF
102
}
330
BBF
100
AcDbVisualStyle
  2
JitterOff
 70
    20
177
     3
291
     1
 70
    58
 90
        2
176
     0
 90
        2
176
     0
 90
        0
176
     0
 90
        0
176
     0
 40
0.6
176
     0
 40
30.0
176
     0
 62
     7
420
 16777215
176
     0
 90
        1
176
     0
 90
        4
176
     0
 62
     7
176
     0
 62
   257
176
     0
 90
        1
176
     0
 90
        1
176
     0
 40
1.0
176
     0
 90
       10
176
     2
 62
     7
176
     0
 40
1.0
176
     0
 90
        1
176
     0
 90
        6
176
     0
 90
        2
176
     0
 62
     7
176
     0
 90
        5
176
     0
 90
        0
176
     0
 90
        0
176
     0
290
     0
176
     0
 90
        1
176
     0
 40
0.0
176
     0
 90
        0
176
     0
290
     0
176
     0
290
     1
176
     0
290
     1
176
     0
290
     0
176
     0
290
     0
176
     0
290
     0
176
     0
290
     0
176
     0
290
     0
176
     0
290
     0
176
     0
 90
       50
176
     0
 40
0.0
176
     0
 40
1.0
176
     0
 90
        0
176
     0
 62
   178
420
        0
176
     0
 90
       50
176
     0
 90
        3
176
     0
 62
     5
420
      255
176
     0
290
     0
176
     0
 90
       50
176
     0
 90
       50
176
     0
 90
       50
176
     0
290
     0
176
     0
 90
       50
176
     0
 62
   256
176
     0
 40
1.0
176
     0
 90
        2
176
     0
  1
strokes_ogs.tif
176
     0
290
     0
176
     0
 40
1.0
176
     0
 40
1.0
176
     0
  0
VISUALSTYLE
  5
BCD
102
{ACAD_REACTORS
330
BBF
102
}
330
BBF
100
AcDbVisualStyle
  2
Linepattern
 70
    14
177
     3
291
     1
 70
    58
 90
        2
176
     1
 90
        2
176
     1
 90
        0
176
     1
 90
        0
176
     1
 40
0.6
176
     1
 40
30.0
176
     1
 62
     7
420
 16777215
176
     1
 90
        1
176
     1
 90
        4
176
     1
 62
     7
176
     1
 62
   257
176
     1
 90
        7
176
     1
 90
        7
176
     1
 40
1.0
176
     1
 90
        8
176
     1
 62
     7
176
     1
 40
1.0
176
     1
 90
        1
176
     1
 90
        6
176
     1
 90
        2
176
     1
 62
     7
176
     1
 90
        5
176
     1
 90
        0
176
     1
 90
        0
176
     1
290
     0
176
     1
 90
        1
176
     1
 40
0.0
176
     1
 90
        0
176
     1
290
     0
176
     1
290
     1
176
     1
290
     1
176
     1
290
     0
176
     1
290
     0
176
     1
290
     0
176
     1
290
     0
176
     1
290
     0
176
     1
290
     0
176
     1
 90
       50
176
     1
 40
0.0
176
     1
 40
1.0
176
     1
 90
        0
176
     1
 62
   178
420
        0
176
     1
 90
       50
176
     1
 90
        3
176
     1
 62
     5
420
      255
176
     1
290
     0
176
     1
 90
       50
176
     1
 90
       50
176
     1
 90
       50
176
     1
290
     0
176
     1
 90
       50
176
     1
 62
   256
176
     0
 40
1.0
176
     0
 90
        2
176
     1
  1
strokes_ogs.tif
176
     1
290
     0
176
     1
 40
1.0
176
     1
 40
1.0
176
     1
  0
VISUALSTYLE
  5
BD1
102
{ACAD_REACTORS
330
BBF
102
}
330
BBF
100
AcDbVisualStyle
  2
OverhangOff
 70
    21
177
     3
291
     1
 70
    58
 90
        2
176
     0
 90
        2
176
     0
 90
        0
176
     0
 90
        0
176
     0
 40
0.6
176
     0
 40
30.0
176
     0
 62
     7
420
 16777215
176
     0
 90
        1
176
     0
 90
        4
176
     0
 62
     7
176
     0
 62
   257
176
     0
 90
        1
176
     0
 90
        1
176
     0
 40
1.0
176
     0
 90
        9
176
     2
 62
     7
176
     0
 40
1.0
176
     0
 90
        1
176
     0
 90
        6
176
     0
 90
        2
176
     0
 62
     7
176
     0
 90
        5
176
     0
 90
        0
176
     0
 90
        0
176
     0
290
     0
176
     0
 90
        1
176
     0
 40
0.0
176
     0
 90
        0
176
     0
290
     0
176
     0
290
     1
176
     0
290
     1
176
     0
290
     0
176
     0
290
     0
176
     0
290
     0
176
     0
290
     0
176
     0
290
     0
176
     0
290
     0
176
     0
 90
       50
176
     0
 40
0.0
176
     0
 40
1.0
176
     0
 90
        0
176
     0
 62
   178
420
        0
176
     0
 90
       50
176
     0
 90
        3
176
     0
 62
     5
420
      255
176
     0
290
     0
176
     0
 90
       50
176
     0
 90
       50
176
     0
 90
       50
176
     0
290
     0
176
     0
 90
       50
176
     0
 62
   256
176
     0
 40
1.0
176
     0
 90
        2
176
     0
  1
strokes_ogs.tif
176
     0
290
     0
176
     0
 40
1.0
176
     0
 40
1.0
176
     0
  0
VISUALSTYLE
  5
BC8
102
{ACAD_REACTORS
330
BBF
102
}
330
BBF
100
AcDbVisualStyle
  2
Realistic
 70
     8
177
     3
291
     0
 70
    58
 90
        2
176
     1
 90
        3
176
     1
 90
        0
176
     1
 90
        2
176
     1
 40
0.6
176
     1
 40
30.0
176
     1
 62
     7
420
 16777215
176
     1
 90
        0
176
     1
 90
        0
176
     1
 62
     7
176
     1
 62
   257
176
     1
 90
        1
176
     1
 90
        1
176
     1
 40
1.0
176
     1
 90
        8
176
     1
 62
   257
176
     1
 40
1.0
176
     1
 90
        1
176
     1
 90
        6
176
     1
 90
        2
176
     1
 62
     7
176
     1
 90
        3
176
     1
 90
        0
176
     1
 90
        0
176
     1
290
     0
176
     1
 90
       13
176
     1
 40
0.0
176
     1
 90
        0
176
     1
290
     0
176
     1
290
     1
176
     1
290
     1
176
     1
290
     0
176
     1
290
     0
176
     1
290
     0
176
     1
290
     0
176
     1
290
     0
176
     1
290
     0
176
     1
 90
       50
176
     1
 40
0.0
176
     1
 40
1.0
176
     1
 90
        0
176
     1
 62
   178
420
        0
176
     1
 90
       50
176
     1
 90
        3
176
     1
 62
     5
420
      255
176
     1
290
     0
176
     1
 90
       50
176
     1
 90
       50
176
     1
 90
       50
176
     1
290
     0
176
     1
 90
       50
176
     1
 62
   256
176
     0
 40
1.0
176
     0
 90
        2
176
     1
  1
strokes_ogs.tif
176
     1
290
     0
176
     1
 40
1.0
176
     1
 40
1.0
176
     1
  0
VISUALSTYLE
  5
BD7
102
{ACAD_REACTORS
330
BBF
102
}
330
BBF
100
AcDbVisualStyle
  2
Shaded
 70
    27
177
     3
291
     0
 70
    58
 90
        2
176
     1
 90
        2
176
     1
 90
        1
176
     1
 90
        2
176
     1
 40
0.6
176
     1
 40
30.0
176
     1
 62
     7
420
 16777215
176
     1
 90
        0
176
     1
 90
        4
176
     1
 62
     7
176
     1
 62
   257
176
     1
 90
        1
176
     1
 90
        1
176
     1
 40
1.0
176
     1
 90
        8
176
     1
 62
   257
176
     1
 40
1.0
176
     1
 90
        1
176
     1
 90
        6
176
     1
 90
        2
176
     1
 62
     8
420
  7895160
176
     1
 90
        3
176
     1
 90
        0
176
     1
 90
        0
176
     1
290
     0
176
     1
 90
        5
176
     1
 40
0.0
176
     1
 90
        0
176
     1
290
     0
176
     1
290
     1
176
     1
290
     1
176
     1
290
     0
176
     1
290
     0
176
     1
290
     0
176
     1
290
     0
176
     1
290
     0
176
     1
290
     0
176
     1
 90
       50
176
     1
 40
0.0
176
     1
 40
1.0
176
     1
 90
        0
176
     1
 62
   178
420
        0
176
     1
 90
       50
176
     1
 90
        3
176
     1
 62
     5
420
      255
176
     1
290
     0
176
     1
 90
       50
176
     1
 90
       50
176
     1
 90
       50
176
     1
290
     0
176
     1
 90
       50
176
     1
 62
   256
176
     0
 40
1.0
176
     0
 90
        2
176
     1
  1
strokes_ogs.tif
176
     1
290
     0
176
     1
 40
1.0
176
     1
 40
1.0
176
     1
  0
VISUALSTYLE
  5
BD6
102
{ACAD_REACTORS
330
BBF
102
}
330
BBF
100
AcDbVisualStyle
  2
Shaded with edges
 70
    26
177
     3
291
     0
 70
    58
 90
        2
176
     1
 90
        2
176
     1
 90
        1
176
     1
 90
        2
176
     1
 40
0.6
176
     1
 40
30.0
176
     1
 62
     7
420
 16777215
176
     1
 90
        1
176
     1
 90
       10
176
     1
 62
     7
176
     1
 62
   257
176
     1
 90
        2
176
     1
 90
        1
176
     1
 40
1.0
176
     1
 90
        8
176
     1
 62
   257
176
     1
 40
1.0
176
     1
 90
        1
176
     1
 90
        6
176
     1
 90
        2
176
     1
 62
     7
176
     1
 90
        3
176
     1
 90
        0
176
     1
 90
        0
176
     1
290
     0
176
     1
 90
        5
176
     1
 40
0.0
176
     1
 90
        0
176
     1
290
     0
176
     1
290
     1
176
     1
290
     1
176
     1
290
     0
176
     1
290
     0
176
     1
290
     0
176
     1
290
     0
176
     1
290
     0
176
     1
290
     0
176
     1
 90
       50
176
     1
 40
0.0
176
     1
 40
1.0
176
     1
 90
        0
176
     1
 62
   178
420
        0
176
     1
 90
       50
176
     1
 90
        3
176
     1
 62
     5
420
      255
176
     1
290
     0
176
     1
 90
       50
176
     1
 90
       50
176
     1
 90
       50
176
     1
290
     0
176
     1
 90
       50
176
     1
 62
   256
176
     0
 40
1.0
176
     0
 90
        2
176
     1
  1
strokes_ogs.tif
176
     1
290
     0
176
     1
 40
1.0
176
     1
 40
1.0
176
     1
  0
VISUALSTYLE
  5
BD3
102
{ACAD_REACTORS
330
BBF
102
}
330
BBF
100
AcDbVisualStyle
  2
Shades of Gray
 70
    23
177
     3
291
     0
 70
    58
 90
        2
176
     1
 90
        2
176
     1
 90
        3
176
     1
 90
        0
176
     1
 40
0.6
176
     1
 40
30.0
176
     1
 62
     7
420
 16777215
176
     1
 90
        2
176
     1
 90
        2
176
     1
 62
     7
176
     1
 62
     7
176
     1
 90
        1
176
     1
 90
        1
176
     1
 40
40.0
176
     1
 90
        8
176
     1
 62
     7
176
     1
 40
1.0
176
     1
 90
        1
176
     1
 90
        6
176
     1
 90
        2
176
     1
 62
     7
176
     1
 90
        3
176
     1
 90
        0
176
     1
 90
        0
176
     1
290
     0
176
     1
 90
        1
176
     1
 40
0.0
176
     1
 90
        0
176
     1
290
     0
176
     1
290
     1
176
     1
290
     1
176
     1
290
     0
176
     1
290
     0
176
     1
290
     0
176
     1
290
     0
176
     1
290
     0
176
     1
290
     0
176
     1
 90
       50
176
     1
 40
0.0
176
     1
 40
1.0
176
     1
 90
        0
176
     1
 62
   178
420
        0
176
     1
 90
       50
176
     1
 90
        3
176
     1
 62
     5
420
      255
176
     1
290
     0
176
     1
 90
       50
176
     1
 90
       50
176
     1
 90
       50
176
     1
290
     0
176
     1
 90
       50
176
     1
 62
   256
176
     0
 40
1.0
176
     0
 90
        2
176
     1
  1
strokes_ogs.tif
176
     1
290
     0
176
     1
 40
1.0
176
     1
 40
1.0
176
     1
  0
VISUALSTYLE
  5
BD4
102
{ACAD_REACTORS
330
BBF
102
}
330
BBF
100
AcDbVisualStyle
  2
Sketchy
 70
    24
177
     3
291
     0
 70
    58
 90
        1
176
     1
 90
        2
176
     1
 90
        2
176
     1
 90
        0
176
     1
 40
0.6
176
     1
 40
30.0
176
     1
 62
     7
420
 16777215
176
     1
 90
        2
176
     1
 90
        2
176
     1
 62
     7
176
     1
 62
     7
176
     1
 90
        1
176
     1
 90
        1
176
     1
 40
40.0
176
     1
 90
       11
176
     1
 62
     7
176
     1
 40
1.0
176
     1
 90
        1
176
     1
 90
        6
176
     1
 90
        2
176
     1
 62
     7
176
     1
 90
        6
176
     1
 90
        0
176
     1
 90
        0
176
     1
290
     0
176
     1
 90
        1
176
     1
 40
0.0
176
     1
 90
        0
176
     1
290
     0
176
     1
290
     1
176
     1
290
     1
176
     1
290
     0
176
     1
290
     0
176
     1
290
     0
176
     1
290
     0
176
     1
290
     0
176
     1
290
     0
176
     1
 90
       50
176
     1
 40
0.0
176
     1
 40
1.0
176
     1
 90
        0
176
     1
 62
   178
420
        0
176
     1
 90
       50
176
     1
 90
        3
176
     1
 62
     5
420
      255
176
     1
290
     0
176
     1
 90
       50
176
     1
 90
       50
176
     1
 90
       50
176
     1
290
     0
176
     1
 90
       50
176
     1
 62
   256
176
     0
 40
1.0
176
     0
 90
        2
176
     1
  1
strokes_ogs.tif
176
     1
290
     0
176
     1
 40
1.0
176
     1
 40
1.0
176
     1
  0
VISUALSTYLE
  5
BCC
102
{ACAD_REACTORS
330
BBF
102
}
330
BBF
100
AcDbVisualStyle
  2
Thicken
 70
    13
177
     3
291
     1
 70
    58
 90
        2
176
     1
 90
        2
176
     1
 90
        0
176
     1
 90
        0
176
     1
 40
0.6
176
     1
 40
30.0
176
     1
 62
     7
420
 16777215
176
     1
 90
        1
176
     1
 90
        4
176
     1
 62
     7
176
     1
 62
   257
176
     1
 90
        1
176
     1
 90
        1
176
     1
 40
1.0
176
     1
 90
       12
176
     1
 62
     7
176
     1
 40
1.0
176
     1
 90
        1
176
     1
 90
        6
176
     1
 90
        2
176
     1
 62
     7
176
     1
 90
        5
176
     1
 90
        0
176
     1
 90
        0
176
     1
290
     0
176
     1
 90
        1
176
     1
 40
0.0
176
     1
 90
        0
176
     1
290
     0
176
     1
290
     1
176
     1
290
     1
176
     1
290
     0
176
     1
290
     0
176
     1
290
     0
176
     1
290
     0
176
     1
290
     0
176
     1
290
     0
176
     1
 90
       50
176
     1
 40
0.0
176
     1
 40
1.0
176
     1
 90
        0
176
     1
 62
   178
420
        0
176
     1
 90
       50
176
     1
 90
        3
176
     1
 62
     5
420
      255
176
     1
290
     0
176
     1
 90
       50
176
     1
 90
       50
176
     1
 90
       50
176
     1
290
     0
176
     1
 90
       50
176
     1
 62
   256
176
     0
 40
1.0
176
     0
 90
        2
176
     1
  1
strokes_ogs.tif
176
     1
290
     0
176
     1
 40
1.0
176
     1
 40
1.0
176
     1
  0
VISUALSTYLE
  5
BC5
102
{ACAD_REACTORS
330
BBF
102
}
330
BBF
100
AcDbVisualStyle
  2
Wireframe
 70
     5
177
     3
291
     0
 70
    58
 90
        0
176
     1
 90
        2
176
     1
 90
        0
176
     1
 90
        0
176
     1
 40
0.6
176
     1
 40
30.0
176
     1
 62
     7
420
 16777215
176
     1
 90
        1
176
     1
 90
        4
176
     1
 62
     7
176
     1
 62
   257
176
     1
 90
        1
176
     1
 90
        1
176
     1
 40
1.0
176
     1
 90
        0
176
     1
 62
   257
176
     1
 40
1.0
176
     1
 90
        1
176
     1
 90
        6
176
     1
 90
        2
176
     1
 62
     7
176
     1
 90
        3
176
     1
 90
        0
176
     1
 90
        0
176
     1
290
     0
176
     1
 90
        1
176
     1
 40
0.0
176
     1
 90
        0
176
     1
290
     0
176
     1
290
     1
176
     1
290
     1
176
     1
290
     0
176
     1
290
     0
176
     1
290
     0
176
     1
290
     0
176
     1
290
     0
176
     1
290
     0
176
     1
 90
       50
176
     1
 40
0.0
176
     1
 40
1.0
176
     1
 90
        0
176
     1
 62
   178
420
        0
176
     1
 90
       50
176
     1
 90
        3
176
     1
 62
     5
420
      255
176
     1
290
     0
176
     1
 90
       50
176
     1
 90
       50
176
     1
 90
       50
176
     1
290
     0
176
     1
 90
       50
176
     1
 62
   256
176
     0
 40
1.0
176
     0
 90
        2
176
     1
  1
strokes_ogs.tif
176
     1
290
     0
176
     1
 40
1.0
176
     1
 40
1.0
176
     1
  0
VISUALSTYLE
  5
BD5
102
{ACAD_REACTORS
330
BBF
102
}
330
BBF
100
AcDbVisualStyle
  2
X-Ray
 70
    25
177
     3
291
     0
 70
    58
 90
        2
176
     1
 90
        2
176
     1
 90
        1
176
     1
 90
        1
176
     1
 40
0.5
176
     1
 40
30.0
176
     1
 62
     7
420
 16777215
176
     1
 90
        1
176
     1
 90
        0
176
     1
 62
     7
176
     1
 62
   257
176
     1
 90
        1
176
     1
 90
        1
176
     1
 40
1.0
176
     1
 90
        8
176
     1
 62
     7
176
     1
 40
1.0
176
     1
 90
        1
176
     1
 90
        6
176
     1
 90
        2
176
     1
 62
     7
176
     1
 90
        3
176
     1
 90
        0
176
     1
 90
        0
176
     1
290
     0
176
     1
 90
       13
176
     1
 40
0.0
176
     1
 90
        0
176
     1
290
     0
176
     1
290
     1
176
     1
290
     1
176
     1
290
     0
176
     1
290
     0
176
     1
290
     0
176
     1
290
     0
176
     1
290
     0
176
     1
290
     0
176
     1
 90
       50
176
     1
 40
0.0
176
     1
 40
1.0
176
     1
 90
        0
176
     1
 62
   178
420
        0
176
     1
 90
       50
176
     1
 90
        3
176
     1
 62
     5
420
      255
176
     1
290
     0
176
     1
 90
       50
176
     1
 90
       50
176
     1
 90
       50
176
     1
290
     0
176
     1
 90
       50
176
     1
 62
   256
176
     0
 40
1.0
176
     0
 90
        2
176
     1
  1
strokes_ogs.tif
176
     1
290
     0
176
     1
 40
1.0
176
     1
 40
1.0
176
     1
  0
DICTIONARYVAR
  5
C7C
102
{ACAD_REACTORS
330
C7B
102
}
330
C7B
100
DictionaryVariables
280
     0
  1
1:1
  0
DICTIONARYVAR
  5
C81
102
{ACAD_REACTORS
330
C7B
102
}
330
C7B
100
DictionaryVariables
280
     0
  1
Standard
  0
DICTIONARYVAR
  5
C80
102
{ACAD_REACTORS
330
C7B
102
}
330
C7B
100
DictionaryVariables
280
     0
  1
Standard
  0
XRECORD
  5
C06
102
{ACAD_REACTORS
330
C04
102
}
330
C04
100
AcDbXrecord
280
     1
1000
#ffffff
  0
XRECORD
  5
C07
102
{ACAD_REACTORS
330
C04
102
}
330
C04
100
AcDbXrecord
280
     1
1000
FullColor
  0
XRECORD
  5
C08
102
{ACAD_REACTORS
330
C04
102
}
330
C04
100
AcDbXrecord
280
     1
290
     1
  0
XRECORD
  5
C09
102
{ACAD_REACTORS
330
C04
102
}
330
C04
100
AcDbXrecord
280
     1
290
     1
  0
XRECORD
  5
C0A
102
{ACAD_REACTORS
330
C04
102
}
330
C04
100
AcDbXrecord
280
     1
290
     1
  0
XRECORD
  5
C0B
102
{ACAD_REACTORS
330
C04
102
}
330
C04
100
AcDbXrecord
280
     1
290
     1
  0
XRECORD
  5
C0C
102
{ACAD_REACTORS
330
C04
102
}
330
C04
100
AcDbXrecord
280
     1
1000
auto
  0
XRECORD
  5
C0D
102
{ACAD_REACTORS
330
C04
102
}
330
C04
100
AcDbXrecord
280
     1
1000
auto
  0
XRECORD
  5
C0E
102
{ACAD_REACTORS
330
C04
102
}
330
C04
100
AcDbXrecord
280
     1
1000
auto
  0
XRECORD
  5
C0F
102
{ACAD_REACTORS
330
C04
102
}
330
C04
100
AcDbXrecord
280
     1
1000
auto
  0
XRECORD
  5
C10
102
{ACAD_REACTORS
330
C04
102
}
330
C04
100
AcDbXrecord
280
     1
1000
auto
  0
XRECORD
  5
C11
102
{ACAD_REACTORS
330
C04
102
}
330
C04
100
AcDbXrecord
280
     1
1000
auto
  0
XRECORD
  5
C12
102
{ACAD_REACTORS
330
C04
102
}
330
C04
100
AcDbXrecord
280
     1
1000
auto
  0
XRECORD
  5
C13
102
{ACAD_REACTORS
330
C04
102
}
330
C04
100
AcDbXrecord
280
     1
1000
auto
  0
XRECORD
  5
C14
102
{ACAD_REACTORS
330
C04
102
}
330
C04
100
AcDbXrecord
280
     1
290
     0
  0
XRECORD
  5
C15
102
{ACAD_REACTORS
330
C04
102
}
330
C04
100
AcDbXrecord
280
     1
290
     0
  0
XRECORD
  5
C16
102
{ACAD_REACTORS
330
C04
102
}
330
C04
100
AcDbXrecord
280
     1
290
     0
  0
XRECORD
  5
C17
102
{ACAD_REACTORS
330
C04
102
}
330
C04
100
AcDbXrecord
280
     1
290
     0
  0
XRECORD
  5
C18
102
{ACAD_REACTORS
330
C04
102
}
330
C04
100
AcDbXrecord
280
     1
 90
    65537
  0
XRECORD
  5
C19
102
{ACAD_REACTORS
330
C04
102
}
330
C04
100
AcDbXrecord
280
     1
 90
    65537
  0
XRECORD
  5
C1A
102
{ACAD_REACTORS
330
C04
102
}
330
C04
100
AcDbXrecord
280
     1
 90
    65537
  0
XRECORD
  5
C1B
102
{ACAD_REACTORS
330
C04
102
}
330
C04
100
AcDbXrecord
280
     1
 90
    65537
  0
XRECORD
  5
C1C
102
{ACAD_REACTORS
330
C04
102
}
330
C04
100
AcDbXrecord
280
     1
1000
auto
  0
XRECORD
  5
C1D
102
{ACAD_REACTORS
330
C04
102
}
330
C04
100
AcDbXrecord
280
     1
1000
auto
  0
XRECORD
  5
C1E
102
{ACAD_REACTORS
330
C04
102
}
330
C04
100
AcDbXrecord
280
     1
1000
auto
  0
XRECORD
  5
C1F
102
{ACAD_REACTORS
330
C04
102
}
330
C04
100
AcDbXrecord
280
     1
1000
auto
  0
XRECORD
  5
C20
102
{ACAD_REACTORS
330
C04
102
}
330
C04
100
AcDbXrecord
280
     1
1000
auto
  0
XRECORD
  5
C21
102
{ACAD_REACTORS
330
C04
102
}
330
C04
100
AcDbXrecord
280
     1
1000
auto
  0
XRECORD
  5
C22
102
{ACAD_REACTORS
330
C04
102
}
330
C04
100
AcDbXrecord
280
     1
1000
auto
  0
XRECORD
  5
C23
102
{ACAD_REACTORS
330
C04
102
}
330
C04
100
AcDbXrecord
280
     1
1000
auto
  0
XRECORD
  5
C24
102
{ACAD_REACTORS
330
C04
102
}
330
C04
100
AcDbXrecord
280
     1
 90
        1
  0
XRECORD
  5
C25
102
{ACAD_REACTORS
330
C04
102
}
330
C04
100
AcDbXrecord
280
     1
 40
0.0
  0
XRECORD
  5
C26
102
{ACAD_REACTORS
330
C04
102
}
330
C04
100
AcDbXrecord
280
     1
 40
0.0
  0
XRECORD
  5
C27
102
{ACAD_REACTORS
330
C04
102
}
330
C04
100
AcDbXrecord
280
     1
 40
0.0
  0
XRECORD
  5
C28
102
{ACAD_REACTORS
330
C04
102
}
330
C04
100
AcDbXrecord
280
     1
 40
0.0
  0
XRECORD
  5
C29
102
{ACAD_REACTORS
330
C04
102
}
330
C04
100
AcDbXrecord
280
     1
290
     0
  0
XRECORD
  5
C2A
102
{ACAD_REACTORS
330
C04
102
}
330
C04
100
AcDbXrecord
280
     1
 90
        1
  0
XRECORD
  5
C2B
102
{ACAD_REACTORS
330
C04
102
}
330
C04
100
AcDbXrecord
280
     1
 40
0.0
  0
XRECORD
  5
C2C
102
{ACAD_REACTORS
330
C04
102
}
330
C04
100
AcDbXrecord
280
     1
 40
0.0
  0
XRECORD
  5
C2D
102
{ACAD_REACTORS
330
C04
102
}
330
C04
100
AcDbXrecord
280
     1
1000
Landscape
  0
XRECORD
  5
C2E
102
{ACAD_REACTORS
330
C04
102
}
330
C04
100
AcDbXrecord
280
     1
 40
297.0
  0
XRECORD
  5
C2F
102
{ACAD_REACTORS
330
C04
102
}
330
C04
100
AcDbXrecord
280
     1
 40
210.0
  0
XRECORD
  5
C30
102
{ACAD_REACTORS
330
C04
102
}
330
C04
100
AcDbXrecord
280
     1
1000
1:1
  0
XRECORD
  5
C31
102
{ACAD_REACTORS
330
C04
102
}
330
C04
100
AcDbXrecord
280
     1
290
     1
  0
XRECORD
  5
C05
102
{ACAD_REACTORS
330
C04
102
}
330
C04
100
AcDbXrecord
280
     1
1000
3.22.1
  0
XRECORD
  5
C32
102
{ACAD_REACTORS
330
C04
102
}
330
C04
100
AcDbXrecord
280
     1
 90
        4
  0
XRECORD
  5
C33
102
{ACAD_REACTORS
330
C04
102
}
330
C04
100
AcDbXrecord
280
     1
  0
XRECORD
  5
C34
102
{ACAD_REACTORS
330
C04
102
}
330
C04
100
AcDbXrecord
280
     1
 40
369.7397353497165
  0
XRECORD
  5
C35
102
{ACAD_REACTORS
330
C04
102
}
330
C04
100
AcDbXrecord
280
     1
 40
728.1609073724007
  0
DICTIONARY
  5
C7D
330
BFF
100
AcDbDictionary
280
     1
281
     1
  3
ACAD_ROUNDTRIP_2008_TABLESTYLE_CELLSTYLEMAP
360
C7E
  0
CELLSTYLEMAP
  5
C7E
102
{ACAD_REACTORS
330
C7D
102
}
330
C7D
100
AcDbCellStyleMap
 90
        3
300
CELLSTYLE
  1
TABLEFORMAT_BEGIN
 90
        5
170
     1
 91
        0
 92
    32768
 62
   257
 93
        1
300
CONTENTFORMAT
  1
CONTENTFORMAT_BEGIN
 90
        0
 91
        0
 92
        4
 93
        0
300

 40
0.0
140
1.0
 94
        5
 62
     0
340
BA7
144
0.25
309
CONTENTFORMAT_END
171
     1
301
MARGIN
  1
CELLMARGIN_BEGIN
 40
0.06
 40
0.06
 40
0.06
 40
0.06
 40
0.06
 40
0.06
309
CELLMARGIN_END
 94
        6
 95
        1
302
GRIDFORMAT
  1
GRIDFORMAT_BEGIN
 90
        0
 91
        1
 62
     0
 92
       -2
340
BA9
 93
        0
 40
0.045
309
GRIDFORMAT_END
 95
        2
302
GRIDFORMAT
  1
GRIDFORMAT_BEGIN
 90
        0
 91
        1
 62
     0
 92
       -2
340
BA9
 93
        0
 40
0.045
309
GRIDFORMAT_END
 95
        4
302
GRIDFORMAT
  1
GRIDFORMAT_BEGIN
 90
        0
 91
        1
 62
     0
 92
       -2
340
BA9
 93
        0
 40
0.045
309
GRIDFORMAT_END
 95
        8
302
GRIDFORMAT
  1
GRIDFORMAT_BEGIN
 90
        0
 91
        1
 62
     0
 92
       -2
340
BA9
 93
        0
 40
0.045
309
GRIDFORMAT_END
 95
       16
302
GRIDFORMAT
  1
GRIDFORMAT_BEGIN
 90
        0
 91
        1
 62
     0
 92
       -2
340
BA9
 93
        0
 40
0.045
309
GRIDFORMAT_END
 95
       32
302
GRIDFORMAT
  1
GRIDFORMAT_BEGIN
 90
        0
 91
        1
 62
     0
 92
       -2
340
BA9
 93
        0
 40
0.045
309
GRIDFORMAT_END
309
TABLEFORMAT_END
  1
CELLSTYLE_BEGIN
 90
        1
 91
        1
300
_TITLE
309
CELLSTYLE_END
300
CELLSTYLE
  1
TABLEFORMAT_BEGIN
 90
        5
170
     1
 91
        0
 92
        0
 62
   257
 93
        1
300
CONTENTFORMAT
  1
CONTENTFORMAT_BEGIN
 90
        0
 91
        0
 92
        4
 93
        0
300

 40
0.0
140
1.0
 94
        5
 62
     0
340
BA7
144
0.18
309
CONTENTFORMAT_END
171
     1
301
MARGIN
  1
CELLMARGIN_BEGIN
 40
0.06
 40
0.06
 40
0.06
 40
0.06
 40
0.06
 40
0.06
309
CELLMARGIN_END
 94
        6
 95
        1
302
GRIDFORMAT
  1
GRIDFORMAT_BEGIN
 90
        0
 91
        1
 62
     0
 92
       -2
340
BA9
 93
        0
 40
0.045
309
GRIDFORMAT_END
 95
        2
302
GRIDFORMAT
  1
GRIDFORMAT_BEGIN
 90
        0
 91
        1
 62
     0
 92
       -2
340
BA9
 93
        0
 40
0.045
309
GRIDFORMAT_END
 95
        4
302
GRIDFORMAT
  1
GRIDFORMAT_BEGIN
 90
        0
 91
        1
 62
     0
 92
       -2
340
BA9
 93
        0
 40
0.045
309
GRIDFORMAT_END
 95
        8
302
GRIDFORMAT
  1
GRIDFORMAT_BEGIN
 90
        0
 91
        1
 62
     0
 92
       -2
340
BA9
 93
        0
 40
0.045
309
GRIDFORMAT_END
 95
       16
302
GRIDFORMAT
  1
GRIDFORMAT_BEGIN
 90
        0
 91
        1
 62
     0
 92
       -2
340
BA9
 93
        0
 40
0.045
309
GRIDFORMAT_END
 95
       32
302
GRIDFORMAT
  1
GRIDFORMAT_BEGIN
 90
        0
 91
        1
 62
     0
 92
       -2
340
BA9
 93
        0
 40
0.045
309
GRIDFORMAT_END
309
TABLEFORMAT_END
  1
CELLSTYLE_BEGIN
 90
        2
 91
        1
300
_HEADER
309
CELLSTYLE_END
300
CELLSTYLE
  1
TABLEFORMAT_BEGIN
 90
        5
170
     1
 91
        0
 92
        0
 62
   257
 93
        1
300
CONTENTFORMAT
  1
CONTENTFORMAT_BEGIN
 90
        0
 91
        0
 92
        4
 93
        0
300

 40
0.0
140
1.0
 94
        2
 62
     0
340
BA7
144
0.18
309
CONTENTFORMAT_END
171
     1
301
MARGIN
  1
CELLMARGIN_BEGIN
 40
0.06
 40
0.06
 40
0.06
 40
0.06
 40
0.06
 40
0.06
309
CELLMARGIN_END
 94
        6
 95
        1
302
GRIDFORMAT
  1
GRIDFORMAT_BEGIN
 90
        0
 91
        1
 62
     0
 92
       -2
340
BA9
 93
        0
 40
0.045
309
GRIDFORMAT_END
 95
        2
302
GRIDFORMAT
  1
GRIDFORMAT_BEGIN
 90
        0
 91
        1
 62
     0
 92
       -2
340
BA9
 93
        0
 40
0.045
309
GRIDFORMAT_END
 95
        4
302
GRIDFORMAT
  1
GRIDFORMAT_BEGIN
 90
        0
 91
        1
 62
     0
 92
       -2
340
BA9
 93
        0
 40
0.045
309
GRIDFORMAT_END
 95
        8
302
GRIDFORMAT
  1
GRIDFORMAT_BEGIN
 90
        0
 91
        1
 62
     0
 92
       -2
340
BA9
 93
        0
 40
0.045
309
GRIDFORMAT_END
 95
       16
302
GRIDFORMAT
  1
GRIDFORMAT_BEGIN
 90
        0
 91
        1
 62
     0
 92
       -2
340
BA9
 93
        0
 40
0.045
309
GRIDFORMAT_END
 95
       32
302
GRIDFORMAT
  1
GRIDFORMAT_BEGIN
 90
        0
 91
        1
 62
     0
 92
       -2
340
BA9
 93
        0
 40
0.045
309
GRIDFORMAT_END
309
TABLEFORMAT_END
  1
CELLSTYLE_BEGIN
 90
        3
 91
        2
300
_DATA
309
CELLSTYLE_END
  0
ENDSEC
  0
EOF
