  0
SECTION
  2
HEADER
  9
$ACADVER
  1
AC1027
  9
$ACADMAINTVER
 70
   105
  9
$DWGCODEPAGE
  3
ANSI_1252
  9
$REQUIREDVERSIONS
160
                 0
  9
$INSBASE
 10
0.0
 20
0.0
 30
0.0
  9
$EXTMIN
 10
9.2736268324677
 20
0.0
 30
0.0
  9
$EXTMAX
 10
875.0
 20
203.8307034973146
 30
0.0
  9
$LIMMIN
 10
0.0
 20
0.0
  9
$LIMMAX
 10
12.0
 20
9.0
  9
$ORTHOMODE
 70
     0
  9
$REGENMODE
 70
     1
  9
$FILLMODE
 70
     1
  9
$QTEXTMODE
 70
     0
  9
$MIRRTEXT
 70
     1
  9
$LTSCALE
 40
1.0
  9
$ATTMODE
 70
     1
  9
$TEXTSIZE
 40
0.2
  9
$TRACEWID
 40
0.05
  9
$TEXTSTYLE
  7
Standard
  9
$CLAYER
  8
0
  9
$CELTYPE
  6
ByLayer
  9
$CECOLOR
 62
   178
  9
$CELTSCALE
 40
1.0
  9
$DISPSILH
 70
     0
  9
$DIMSCALE
 40
1.0
  9
$DIMASZ
 40
10.0
  9
$DIMEXO
 40
2.5
  9
$DIMDLI
 40
20.0
  9
$DIMRND
 40
0.0
  9
$DIMDLE
 40
0.0
  9
$DIMEXE
 40
5.0
  9
$DIMTP
 40
0.0
  9
$DIMTM
 40
0.0
  9
$DIMTXT
 40
10.0
  9
$DIMCEN
 40
0.09
  9
$DIMTSZ
 40
0.0
  9
$DIMTOL
 70
     0
  9
$DIMLIM
 70
     0
  9
$DIMTIH
 70
     1
  9
$DIMTOH
 70
     1
  9
$DIMSE1
 70
     0
  9
$DIMSE2
 70
     0
  9
$DIMTAD
 70
     0
  9
$DIMZIN
 70
     8
  9
$DIMBLK
  1

  9
$DIMASO
 70
     1
  9
$DIMSHO
 70
     1
  9
$DIMPOST
  1

  9
$DIMAPOST
  1

  9
$DIMALT
 70
     0
  9
$DIMALTD
 70
     2
  9
$DIMALTF
 40
25.4
  9
$DIMLFAC
 40
1.0
  9
$DIMTOFL
 70
     0
  9
$DIMTVP
 40
0.0
  9
$DIMTIX
 70
     0
  9
$DIMSOXD
 70
     0
  9
$DIMSAH
 70
     0
  9
$DIMBLK1
  1

  9
$DIMBLK2
  1

  9
$DIMSTYLE
  2
Standard
  9
$DIMCLRD
 70
   178
  9
$DIMCLRE
 70
   178
  9
$DIMCLRT
 70
   178
  9
$DIMTFAC
 40
1.0
  9
$DIMGAP
 40
2.5
  9
$DIMJUST
 70
     0
  9
$DIMSD1
 70
     0
  9
$DIMSD2
 70
     0
  9
$DIMTOLJ
 70
     1
  9
$DIMTZIN
 70
     0
  9
$DIMALTZ
 70
     0
  9
$DIMALTTZ
 70
     0
  9
$DIMUPT
 70
     0
  9
$DIMDEC
 70
     4
  9
$DIMTDEC
 70
     4
  9
$DIMALTU
 70
     2
  9
$DIMALTTD
 70
     2
  9
$DIMTXSTY
  7
Standard
  9
$DIMAUNIT
 70
     0
  9
$DIMADEC
 70
     0
  9
$DIMALTRND
 40
0.0
  9
$DIMAZIN
 70
     2
  9
$DIMDSEP
 70
    46
  9
$DIMATFIT
 70
     3
  9
$DIMFRAC
 70
     0
  9
$DIMLDRBLK
  1

  9
$DIMLUNIT
 70
     2
  9
$DIMLWD
 70
    -2
  9
$DIMLWE
 70
    -2
  9
$DIMTMOVE
 70
     0
  9
$DIMFXL
 40
1.0
  9
$DIMFXLON
 70
     0
  9
$DIMJOGANG
 40
0.7853981633974483
  9
$DIMTFILL
 70
     0
  9
$DIMTFILLCLR
 70
     0
  9
$DIMARCSYM
 70
     0
  9
$DIMLTYPE
  6

  9
$DIMLTEX1
  6

  9
$DIMLTEX2
  6

  9
$DIMTXTDIRECTION
 70
     0
  9
$LUNITS
 70
     2
  9
$LUPREC
 70
     4
  9
$SKETCHINC
 40
0.1
  9
$FILLETRAD
 40
0.5
  9
$AUNITS
 70
     0
  9
$AUPREC
 70
     0
  9
$MENU
  1
.
  9
$ELEVATION
 40
0.0
  9
$PELEVATION
 40
0.0
  9
$THICKNESS
 40
0.0
  9
$LIMCHECK
 70
     0
  9
$CHAMFERA
 40
0.0
  9
$CHAMFERB
 40
0.0
  9
$CHAMFERC
 40
0.0
  9
$CHAMFERD
 40
0.0
  9
$SKPOLY
 70
     0
  9
$TDCREATE
 40
2459302.596279294
  9
$TDUCREATE
 40
2459302.096279294
  9
$TDUPDATE
 40
2459302.596279421
  9
$TDUUPDATE
 40
2459302.096279421
  9
$TDINDWG
 40
0.0000000116
  9
$TDUSRTIMER
 40
0.0000000116
  9
$USRTIMER
 70
     1
  9
$ANGBASE
 50
0.0
  9
$ANGDIR
 70
     0
  9
$PDMODE
 70
     0
  9
$PDSIZE
 40
0.0
  9
$PLINEWID
 40
0.0
  9
$SPLFRAME
 70
     0
  9
$SPLINETYPE
 70
     6
  9
$SPLINESEGS
 70
     8
  9
$HANDSEED
  5
389
  9
$SURFTAB1
 70
     6
  9
$SURFTAB2
 70
     6
  9
$SURFTYPE
 70
     6
  9
$SURFU
 70
     6
  9
$SURFV
 70
     6
  9
$UCSBASE
  2

  9
$UCSNAME
  2

  9
$UCSORG
 10
0.0
 20
0.0
 30
0.0
  9
$UCSXDIR
 10
1.0
 20
0.0
 30
0.0
  9
$UCSYDIR
 10
0.0
 20
1.0
 30
0.0
  9
$UCSORTHOREF
  2

  9
$UCSORTHOVIEW
 70
     0
  9
$UCSORGTOP
 10
0.0
 20
0.0
 30
0.0
  9
$UCSORGBOTTOM
 10
0.0
 20
0.0
 30
0.0
  9
$UCSORGLEFT
 10
0.0
 20
0.0
 30
0.0
  9
$UCSORGRIGHT
 10
0.0
 20
0.0
 30
0.0
  9
$UCSORGFRONT
 10
0.0
 20
0.0
 30
0.0
  9
$UCSORGBACK
 10
0.0
 20
0.0
 30
0.0
  9
$PUCSBASE
  2

  9
$PUCSNAME
  2

  9
$PUCSORG
 10
0.0
 20
0.0
 30
0.0
  9
$PUCSXDIR
 10
1.0
 20
0.0
 30
0.0
  9
$PUCSYDIR
 10
0.0
 20
1.0
 30
0.0
  9
$PUCSORTHOREF
  2

  9
$PUCSORTHOVIEW
 70
     0
  9
$PUCSORGTOP
 10
0.0
 20
0.0
 30
0.0
  9
$PUCSORGBOTTOM
 10
0.0
 20
0.0
 30
0.0
  9
$PUCSORGLEFT
 10
0.0
 20
0.0
 30
0.0
  9
$PUCSORGRIGHT
 10
0.0
 20
0.0
 30
0.0
  9
$PUCSORGFRONT
 10
0.0
 20
0.0
 30
0.0
  9
$PUCSORGBACK
 10
0.0
 20
0.0
 30
0.0
  9
$USERI1
 70
     0
  9
$USERI2
 70
     0
  9
$USERI3
 70
     0
  9
$USERI4
 70
     0
  9
$USERI5
 70
     0
  9
$USERR1
 40
0.0
  9
$USERR2
 40
0.0
  9
$USERR3
 40
0.0
  9
$USERR4
 40
0.0
  9
$USERR5
 40
0.0
  9
$WORLDVIEW
 70
     1
  9
$SHADEDGE
 70
     3
  9
$SHADEDIF
 70
    70
  9
$TILEMODE
 70
     1
  9
$MAXACTVP
 70
    64
  9
$PINSBASE
 10
0.0
 20
0.0
 30
0.0
  9
$PLIMCHECK
 70
     0
  9
$PEXTMIN
 10
0.0
 20
0.0
 30
0.0
  9
$PEXTMAX
 10
0.0
 20
0.0
 30
0.0
  9
$PLIMMIN
 10
-20.0
 20
-7.5
  9
$PLIMMAX
 10
277.0
 20
202.5
  9
$UNITMODE
 70
     0
  9
$VISRETAIN
 70
     1
  9
$PLINEGEN
 70
     0
  9
$PSLTSCALE
 70
     1
  9
$TREEDEPTH
 70
  3020
  9
$CMLSTYLE
  2
Standard
  9
$CMLJUST
 70
     0
  9
$CMLSCALE
 40
1.0
  9
$PROXYGRAPHICS
 70
     1
  9
$MEASUREMENT
 70
     1
  9
$CELWEIGHT
370
    -1
  9
$ENDCAPS
280
     0
  9
$JOINSTYLE
280
     0
  9
$LWDISPLAY
290
     0
  9
$INSUNITS
 70
     4
  9
$HYPERLINKBASE
  1

  9
$STYLESHEET
  1

  9
$XEDIT
290
     1
  9
$CEPSNTYPE
380
     0
  9
$PSTYLEMODE
290
     1
  9
$FINGERPRINTGUID
  2
{72717362-7662-7274-3930-763563b47463}
  9
$VERSIONGUID
  2
{FAEB1C32-E019-11D5-929B-00C0DF256EC4}
  9
$EXTNAMES
290
     1
  9
$PSVPSCALE
 40
0.0
  9
$OLESTARTUP
290
     0
  9
$SORTENTS
280
   127
  9
$INDEXCTL
280
     0
  9
$HIDETEXT
280
     1
  9
$XCLIPFRAME
280
     2
  9
$HALOGAP
280
     0
  9
$OBSCOLOR
 70
   257
  9
$OBSLTYPE
280
     0
  9
$INTERSECTIONDISPLAY
280
     0
  9
$INTERSECTIONCOLOR
 70
   257
  9
$DIMASSOC
280
     2
  9
$PROJECTNAME
  1

  9
$CAMERADISPLAY
290
     0
  9
$LENSLENGTH
 40
50.0
  9
$CAMERAHEIGHT
 40
0.0
  9
$STEPSPERSEC
 40
2.0
  9
$STEPSIZE
 40
6.0
  9
$3DDWFPREC
 40
2.0
  9
$PSOLWIDTH
 40
0.25
  9
$PSOLHEIGHT
 40
4.0
  9
$LOFTANG1
 40
1.570796326794897
  9
$LOFTANG2
 40
1.570796326794897
  9
$LOFTMAG1
 40
0.0
  9
$LOFTMAG2
 40
0.0
  9
$LOFTPARAM
 70
     7
  9
$LOFTNORMALS
280
     1
  9
$LATITUDE
 40
37.795
  9
$LONGITUDE
 40
-122.394
  9
$NORTHDIRECTION
 40
0.0
  9
$TIMEZONE
 70
 -8000
  9
$LIGHTGLYPHDISPLAY
280
     1
  9
$TILEMODELIGHTSYNCH
280
     1
  9
$CMATERIAL
347
2D5
  9
$SOLIDHIST
280
     0
  9
$SHOWHIST
280
     1
  9
$DWFFRAME
280
     2
  9
$DGNFRAME
280
     2
  9
$REALWORLDSCALE
290
     1
  9
$INTERFERECOLOR
 62
   256
  9
$CSHADOW
280
     0
  9
$SHADOWPLANELOCATION
 40
0.0
  0
ENDSEC
  0
SECTION
  2
CLASSES
  0
CLASS
  1
ACDBDICTIONARYWDFLT
  2
AcDbDictionaryWithDefault
  3
ObjectDBX Classes
 90
        0
 91
        3
280
     0
281
     0
  0
CLASS
  1
VISUALSTYLE
  2
AcDbVisualStyle
  3
ObjectDBX Classes
 90
     4095
 91
        3
280
     0
281
     0
  0
CLASS
  1
MATERIAL
  2
AcDbMaterial
  3
ObjectDBX Classes
 90
     1153
 91
        3
280
     0
281
     0
  0
CLASS
  1
SCALE
  2
AcDbScale
  3
ObjectDBX Classes
 90
     1153
 91
        3
280
     0
281
     0
  0
CLASS
  1
TABLESTYLE
  2
AcDbTableStyle
  3
ObjectDBX Classes
 90
     4095
 91
        3
280
     0
281
     0
  0
CLASS
  1
MLEADERSTYLE
  2
AcDbMLeaderStyle
  3
ACDB_MLEADERSTYLE_CLASS
 90
     4095
 91
        3
280
     0
281
     0
  0
CLASS
  1
SUN
  2
AcDbSun
  3
SCENEOE
 90
     1153
 91
        3
280
     0
281
     0
  0
CLASS
  1
DICTIONARYVAR
  2
AcDbDictionaryVar
  3
ObjectDBX Classes
 90
        0
 91
        3
280
     0
281
     0
  0
CLASS
  1
CELLSTYLEMAP
  2
AcDbCellStyleMap
  3
ObjectDBX Classes
 90
     1152
 91
        3
280
     0
281
     0
  0
ENDSEC
  0
SECTION
  2
TABLES
  0
TABLE
  2
VPORT
  5
29A
330
0
100
AcDbSymbolTable
 70
     1
  0
VPORT
  5
2BA
330
29A
100
AcDbSymbolTableRecord
100
AcDbViewportTableRecord
  2
*Active
 70
     0
 10
0.0
 20
0.0
 11
1.0
 21
1.0
 12
880.8257528556635
 22
121.2912421366613
 13
0.0
 23
0.0
 14
0.5
 24
0.5
 15
0.5
 25
0.5
 16
0.0
 26
0.0
 36
1.0
 17
0.0
 27
0.0
 37
0.0
 40
266.6348913449983
 41
1.923933209647496
 42
50.0
 43
0.0
 44
0.0
 50
0.0
 51
0.0
 71
     0
 72
   100
 73
     1
 74
     3
 75
     0
 76
     0
 77
     0
 78
     0
281
     0
 65
     1
110
0.0
120
0.0
130
0.0
111
1.0
121
0.0
131
0.0
112
0.0
122
1.0
132
0.0
 79
     0
146
0.0
348
2C0
 60
     3
 61
     5
292
     1
282
     1
141
0.0
142
0.0
 63
   250
361
2FE
  0
ENDTAB
  0
TABLE
  2
LTYPE
  5
297
330
0
100
AcDbSymbolTable
 70
    48
  0
LTYPE
  5
2A5
330
297
100
AcDbSymbolTableRecord
100
AcDbLinetypeTableRecord
  2
ByBlock
 70
     0
  3

 72
    65
 73
     0
 40
0.0
  0
LTYPE
  5
2A6
330
297
100
AcDbSymbolTableRecord
100
AcDbLinetypeTableRecord
  2
ByLayer
 70
     0
  3

 72
    65
 73
     0
 40
0.0
  0
LTYPE
  5
2A7
330
297
100
AcDbSymbolTableRecord
100
AcDbLinetypeTableRecord
  2
Continuous
 70
     0
  3
Solid line
 72
    65
 73
     0
 40
0.0
  0
LTYPE
  5
33C
330
297
100
AcDbSymbolTableRecord
100
AcDbLinetypeTableRecord
  2
CENTER2
 70
     0
  3
Center (.5x) ___ _ ___ _ ___ _ ___ _ ___ _ ___
 72
    65
 73
     4
 40
28.575
 49
19.05
 74
     0
 49
-3.175
 74
     0
 49
3.175
 74
     0
 49
-3.175
 74
     0
  0
LTYPE
  5
33D
330
297
100
AcDbSymbolTableRecord
100
AcDbLinetypeTableRecord
  2
ACAD_ISO06W100
 70
     0
  3
ISO long-dash triple-dot ____ ... ____ ... ____
 72
    65
 73
     8
 40
36.0
 49
24.0
 74
     0
 49
-3.0
 74
     0
 49
0.0
 74
     0
 49
-3.0
 74
     0
 49
0.0
 74
     0
 49
-3.0
 74
     0
 49
0.0
 74
     0
 49
-3.0
 74
     0
  0
LTYPE
  5
33E
330
297
100
AcDbSymbolTableRecord
100
AcDbLinetypeTableRecord
  2
ACAD_ISO07W100
 70
     0
  3
ISO dot . . . . . . . . . . . . . . . . . . . . 
 72
    65
 73
     2
 40
3.0
 49
0.0
 74
     0
 49
-3.0
 74
     0
  0
LTYPE
  5
33F
330
297
100
AcDbSymbolTableRecord
100
AcDbLinetypeTableRecord
  2
ACAD_ISO08W100
 70
     0
  3
ISO long-dash short-dash ____ __ ____ __ ____ _
 72
    65
 73
     4
 40
36.0
 49
24.0
 74
     0
 49
-3.0
 74
     0
 49
6.0
 74
     0
 49
-3.0
 74
     0
  0
LTYPE
  5
340
330
297
100
AcDbSymbolTableRecord
100
AcDbLinetypeTableRecord
  2
ACAD_ISO09W100
 70
     0
  3
ISO long-dash double-short-dash ____ __ __ ____
 72
    65
 73
     6
 40
45.0
 49
24.0
 74
     0
 49
-3.0
 74
     0
 49
6.0
 74
     0
 49
-3.0
 74
     0
 49
6.0
 74
     0
 49
-3.0
 74
     0
  0
LTYPE
  5
341
330
297
100
AcDbSymbolTableRecord
100
AcDbLinetypeTableRecord
  2
ACAD_ISO02W100
 70
     0
  3
ISO dash __ __ __ __ __ __ __ __ __ __ __ __ __
 72
    65
 73
     2
 40
15.0
 49
12.0
 74
     0
 49
-3.0
 74
     0
  0
LTYPE
  5
342
330
297
100
AcDbSymbolTableRecord
100
AcDbLinetypeTableRecord
  2
ACAD_ISO03W100
 70
     0
  3
ISO dash space __    __    __    __    __    __
 72
    65
 73
     2
 40
30.0
 49
12.0
 74
     0
 49
-18.0
 74
     0
  0
LTYPE
  5
343
330
297
100
AcDbSymbolTableRecord
100
AcDbLinetypeTableRecord
  2
ACAD_ISO04W100
 70
     0
  3
ISO long-dash dot ____ . ____ . ____ . ____ . _
 72
    65
 73
     4
 40
30.0
 49
24.0
 74
     0
 49
-3.0
 74
     0
 49
0.0
 74
     0
 49
-3.0
 74
     0
  0
LTYPE
  5
344
330
297
100
AcDbSymbolTableRecord
100
AcDbLinetypeTableRecord
  2
ACAD_ISO05W100
 70
     0
  3
ISO long-dash double-dot ____ .. ____ .. ____ . 
 72
    65
 73
     6
 40
33.0
 49
24.0
 74
     0
 49
-3.0
 74
     0
 49
0.0
 74
     0
 49
-3.0
 74
     0
 49
0.0
 74
     0
 49
-3.0
 74
     0
  0
LTYPE
  5
345
330
297
100
AcDbSymbolTableRecord
100
AcDbLinetypeTableRecord
  2
PHANTOMX2
 70
     0
  3
Phantom (2x) ____________    ____    ____   _
 72
    65
 73
     6
 40
127.0
 49
63.5
 74
     0
 49
-12.7
 74
     0
 49
12.7
 74
     0
 49
-12.7
 74
     0
 49
12.7
 74
     0
 49
-12.7
 74
     0
  0
LTYPE
  5
347
330
297
100
AcDbSymbolTableRecord
100
AcDbLinetypeTableRecord
  2
TRACKS
 70
     0
  3
Tracks -|-|-|-|-|-|-|-|-|-|-|-|-|-|-|-|-|-|-|-|-|-|-|-|-
 72
    65
 73
     2
 40
7.62
 49
3.81
 74
     2
 75
     0
340
346
 46
6.35
 50
0.0
 44
0.0
 45
0.0
  9
TRACK1
 49
3.81
 74
     0
  0
LTYPE
  5
34A
330
297
100
AcDbSymbolTableRecord
100
AcDbLinetypeTableRecord
  2
ZIGZAG
 70
     0
  3
Zig zag /\/\/\/\/\/\/\/\/\/\/\/\/\/\/\/\/\/\/\/\/\/\/\/
 72
    65
 73
     4
 40
20.32254
 49
0.00254
 74
     0
 49
-5.08
 74
     2
 75
     0
340
348
 46
5.08
 50
0.0
 44
-5.08
 45
0.0
  9
ZIG
 49
-10.16
 74
     2
 75
     0
340
349
 46
5.08
 50
180.0
 44
5.08
 45
0.0
  9
ZIG
 49
-5.08
 74
     0
  0
LTYPE
  5
34B
330
297
100
AcDbSymbolTableRecord
100
AcDbLinetypeTableRecord
  2
HIDDENX2
 70
     0
  3
Hidden (2x) ____ ____ ____ ____ ____ ____ ____ 
 72
    65
 73
     2
 40
19.05
 49
12.7
 74
     0
 49
-6.35
 74
     0
  0
LTYPE
  5
34D
330
297
100
AcDbSymbolTableRecord
100
AcDbLinetypeTableRecord
  2
HOT_WATER_SUPPLY
 70
     0
  3
Hot water supply ---- HW ---- HW ---- HW ----
 72
    65
 73
     3
 40
22.86
 49
12.7
 74
     0
 49
-5.08
 74
     2
 75
     0
340
34C
 46
2.54
 50
0.0
 44
-2.54
 45
-1.27
  9
HW
 49
-5.08
 74
     0
  0
LTYPE
  5
34E
330
297
100
AcDbSymbolTableRecord
100
AcDbLinetypeTableRecord
  2
PHANTOM
 70
     0
  3
Phantom ______  __  __  ______  __  __  ______ 
 72
    65
 73
     6
 40
63.50000000000001
 49
31.75
 74
     0
 49
-6.35
 74
     0
 49
6.35
 74
     0
 49
-6.35
 74
     0
 49
6.35
 74
     0
 49
-6.35
 74
     0
  0
LTYPE
  5
34F
330
297
100
AcDbSymbolTableRecord
100
AcDbLinetypeTableRecord
  2
PHANTOM2
 70
     0
  3
Phantom (.5x) ___ _ _ ___ _ _ ___ _ _ ___ _ _
 72
    65
 73
     6
 40
31.75
 49
15.875
 74
     0
 49
-3.175
 74
     0
 49
3.175
 74
     0
 49
-3.175
 74
     0
 49
3.175
 74
     0
 49
-3.175
 74
     0
  0
LTYPE
  5
350
330
297
100
AcDbSymbolTableRecord
100
AcDbLinetypeTableRecord
  2
DIVIDE2
 70
     0
  3
Divide (.5x) __..__..__..__..__..__..__..__.._
 72
    65
 73
     6
 40
15.875
 49
6.35
 74
     0
 49
-3.175
 74
     0
 49
0.0
 74
     0
 49
-3.175
 74
     0
 49
0.0
 74
     0
 49
-3.175
 74
     0
  0
LTYPE
  5
351
330
297
100
AcDbSymbolTableRecord
100
AcDbLinetypeTableRecord
  2
DIVIDEX2
 70
     0
  3
Divide (2x) ________  .  .  ________  .  .  _
 72
    65
 73
     6
 40
63.5
 49
25.4
 74
     0
 49
-12.7
 74
     0
 49
0.0
 74
     0
 49
-12.7
 74
     0
 49
0.0
 74
     0
 49
-12.7
 74
     0
  0
LTYPE
  5
352
330
297
100
AcDbSymbolTableRecord
100
AcDbLinetypeTableRecord
  2
DOT
 70
     0
  3
Dot . . . . . . . . . . . . . . . . . . . . . . . .
 72
    65
 73
     2
 40
6.35
 49
0.0
 74
     0
 49
-6.35
 74
     0
  0
LTYPE
  5
353
330
297
100
AcDbSymbolTableRecord
100
AcDbLinetypeTableRecord
  2
DOT2
 70
     0
  3
Dot (.5x) ........................................
 72
    65
 73
     2
 40
3.175
 49
0.0
 74
     0
 49
-3.175
 74
     0
  0
LTYPE
  5
354
330
297
100
AcDbSymbolTableRecord
100
AcDbLinetypeTableRecord
  2
DASHED
 70
     0
  3
Dashed __ __ __ __ __ __ __ __ __ __ __ __ __ _
 72
    65
 73
     2
 40
19.05
 49
12.7
 74
     0
 49
-6.35
 74
     0
  0
LTYPE
  5
355
330
297
100
AcDbSymbolTableRecord
100
AcDbLinetypeTableRecord
  2
DASHED2
 70
     0
  3
Dashed (.5x) _ _ _ _ _ _ _ _ _ _ _ _ _ _ _ _ _ 
 72
    65
 73
     2
 40
9.524999999999999
 49
6.35
 74
     0
 49
-3.175
 74
     0
  0
LTYPE
  5
356
330
297
100
AcDbSymbolTableRecord
100
AcDbLinetypeTableRecord
  2
DASHEDX2
 70
     0
  3
Dashed (2x) ____  ____  ____  ____  ____  ___
 72
    65
 73
     2
 40
38.09999999999999
 49
25.4
 74
     0
 49
-12.7
 74
     0
  0
LTYPE
  5
357
330
297
100
AcDbSymbolTableRecord
100
AcDbLinetypeTableRecord
  2
DIVIDE
 70
     0
  3
Divide ____ . . ____ . . ____ . . ____ . . ____
 72
    65
 73
     6
 40
31.75
 49
12.7
 74
     0
 49
-6.35
 74
     0
 49
0.0
 74
     0
 49
-6.35
 74
     0
 49
0.0
 74
     0
 49
-6.35
 74
     0
  0
LTYPE
  5
359
330
297
100
AcDbSymbolTableRecord
100
AcDbLinetypeTableRecord
  2
FENCELINE2
 70
     0
  3
Fenceline square ----[]-----[]----[]-----[]----[]---
 72
    65
 73
     4
 40
36.83
 49
6.35
 74
     0
 49
-2.54
 74
     2
 75
     0
340
358
 46
2.54
 50
0.0
 44
-2.54
 45
0.0
  9
BOX
 49
-2.54
 74
     0
 49
25.4
 74
     0
  0
LTYPE
  5
35B
330
297
100
AcDbSymbolTableRecord
100
AcDbLinetypeTableRecord
  2
GAS_LINE
 70
     0
  3
Gas line ----GAS----GAS----GAS----GAS----GAS----GAS--
 72
    65
 73
     3
 40
24.13
 49
12.7
 74
     0
 49
-5.08
 74
     2
 75
     0
340
35A
 46
2.54
 50
0.0
 44
-2.54
 45
-1.27
  9
GAS
 49
-6.35
 74
     0
  0
LTYPE
  5
35C
330
297
100
AcDbSymbolTableRecord
100
AcDbLinetypeTableRecord
  2
HIDDEN
 70
     0
  3
Hidden __ __ __ __ __ __ __ __ __ __ __ __ __ __
 72
    65
 73
     2
 40
9.524999999999999
 49
6.35
 74
     0
 49
-3.175
 74
     0
  0
LTYPE
  5
35D
330
297
100
AcDbSymbolTableRecord
100
AcDbLinetypeTableRecord
  2
HIDDEN2
 70
     0
  3
Hidden (.5x) _ _ _ _ _ _ _ _ _ _ _ _ _ _ _ _ _ 
 72
    65
 73
     2
 40
4.762499999999999
 49
3.175
 74
     0
 49
-1.5875
 74
     0
  0
LTYPE
  5
35E
330
297
100
AcDbSymbolTableRecord
100
AcDbLinetypeTableRecord
  2
DOTX2
 70
     0
  3
Dot (2x) .  .  .  .  .  .  .  .  .  .  .  .  .  .
 72
    65
 73
     2
 40
12.7
 49
0.0
 74
     0
 49
-12.7
 74
     0
  0
LTYPE
  5
360
330
297
100
AcDbSymbolTableRecord
100
AcDbLinetypeTableRecord
  2
DRAINAGE
 70
     0
  3
Drainage ---->---->---->----
 72
    65
 73
     2
 40
10.16
 49
5.08
 74
     2
 75
     0
340
35F
 46
2.54
 50
180.0
 44
0.0
 45
0.0
  9
RIGHT_ARROW
 49
5.08
 74
     0
  0
LTYPE
  5
362
330
297
100
AcDbSymbolTableRecord
100
AcDbLinetypeTableRecord
  2
DRAINAGE2
 70
     0
  3
Drainage reversed----<----<----<----
 72
    65
 73
     2
 40
10.16
 49
5.08
 74
     2
 75
     0
340
361
 46
2.54
 50
0.0
 44
0.0
 45
0.0
  9
RIGHT_ARROW
 49
5.08
 74
     0
  0
LTYPE
  5
364
330
297
100
AcDbSymbolTableRecord
100
AcDbLinetypeTableRecord
  2
FENCELINE1
 70
     0
  3
Fenceline circle ----0-----0----0-----0----0-----0--
 72
    65
 73
     4
 40
36.83
 49
6.35
 74
     0
 49
-2.54
 74
     2
 75
     0
340
363
 46
2.54
 50
0.0
 44
-2.54
 45
0.0
  9
CIRC1
 49
-2.54
 74
     0
 49
25.4
 74
     0
  0
LTYPE
  5
365
330
297
100
AcDbSymbolTableRecord
100
AcDbLinetypeTableRecord
  2
ACAD_ISO14W100
 70
     0
  3
ISO dash triple-dot __ . . . __ . . . __ . . . _
 72
    65
 73
     8
 40
24.0
 49
12.0
 74
     0
 49
-3.0
 74
     0
 49
0.0
 74
     0
 49
-3.0
 74
     0
 49
0.0
 74
     0
 49
-3.0
 74
     0
 49
0.0
 74
     0
 49
-3.0
 74
     0
  0
LTYPE
  5
366
330
297
100
AcDbSymbolTableRecord
100
AcDbLinetypeTableRecord
  2
ACAD_ISO15W100
 70
     0
  3
ISO double-dash triple-dot __ __ . . . __ __ . .
 72
    65
 73
    10
 40
39.0
 49
12.0
 74
     0
 49
-3.0
 74
     0
 49
12.0
 74
     0
 49
-3.0
 74
     0
 49
0.0
 74
     0
 49
-3.0
 74
     0
 49
0.0
 74
     0
 49
-3.0
 74
     0
 49
0.0
 74
     0
 49
-3.0
 74
     0
  0
LTYPE
  5
369
330
297
100
AcDbSymbolTableRecord
100
AcDbLinetypeTableRecord
  2
BATTING
 70
     0
  3
Batting SSSSSSSSSSSSSSSSSSSSSSSSSSSSSSSSSSSSSSSSSSSSSSS
 72
    65
 73
     4
 40
10.16254
 49
0.00254
 74
     0
 49
-2.54
 74
     2
 75
     0
340
367
 46
2.54
 50
0.0
 44
-2.54
 45
0.0
  9
BAT
 49
-5.08
 74
     2
 75
     0
340
368
 46
2.54
 50
180.0
 44
2.54
 45
0.0
  9
BAT
 49
-2.54
 74
     0
  0
LTYPE
  5
36A
330
297
100
AcDbSymbolTableRecord
100
AcDbLinetypeTableRecord
  2
BORDER
 70
     0
  3
Border __ __ . __ __ . __ __ . __ __ . __ __ .
 72
    65
 73
     6
 40
44.45
 49
12.7
 74
     0
 49
-6.35
 74
     0
 49
12.7
 74
     0
 49
-6.35
 74
     0
 49
0.0
 74
     0
 49
-6.35
 74
     0
  0
LTYPE
  5
36B
330
297
100
AcDbSymbolTableRecord
100
AcDbLinetypeTableRecord
  2
ACAD_ISO10W100
 70
     0
  3
ISO dash dot __ . __ . __ . __ . __ . __ . __ . 
 72
    65
 73
     4
 40
18.0
 49
12.0
 74
     0
 49
-3.0
 74
     0
 49
0.0
 74
     0
 49
-3.0
 74
     0
  0
LTYPE
  5
36C
330
297
100
AcDbSymbolTableRecord
100
AcDbLinetypeTableRecord
  2
ACAD_ISO11W100
 70
     0
  3
ISO double-dash dot __ __ . __ __ . __ __ . __ _
 72
    65
 73
     6
 40
33.0
 49
12.0
 74
     0
 49
-3.0
 74
     0
 49
12.0
 74
     0
 49
-3.0
 74
     0
 49
0.0
 74
     0
 49
-3.0
 74
     0
  0
LTYPE
  5
36D
330
297
100
AcDbSymbolTableRecord
100
AcDbLinetypeTableRecord
  2
ACAD_ISO12W100
 70
     0
  3
ISO dash double-dot __ . . __ . . __ . . __ . . 
 72
    65
 73
     6
 40
21.0
 49
12.0
 74
     0
 49
-3.0
 74
     0
 49
0.0
 74
     0
 49
-3.0
 74
     0
 49
0.0
 74
     0
 49
-3.0
 74
     0
  0
LTYPE
  5
36E
330
297
100
AcDbSymbolTableRecord
100
AcDbLinetypeTableRecord
  2
ACAD_ISO13W100
 70
     0
  3
ISO double-dash double-dot __ __ . . __ __ . . _
 72
    65
 73
     8
 40
36.0
 49
12.0
 74
     0
 49
-3.0
 74
     0
 49
12.0
 74
     0
 49
-3.0
 74
     0
 49
0.0
 74
     0
 49
-3.0
 74
     0
 49
0.0
 74
     0
 49
-3.0
 74
     0
  0
LTYPE
  5
36F
330
297
100
AcDbSymbolTableRecord
100
AcDbLinetypeTableRecord
  2
CENTERX2
 70
     0
  3
Center (2x) ________  __  ________  __  _____
 72
    65
 73
     4
 40
101.6
 49
63.5
 74
     0
 49
-12.7
 74
     0
 49
12.7
 74
     0
 49
-12.7
 74
     0
  0
LTYPE
  5
370
330
297
100
AcDbSymbolTableRecord
100
AcDbLinetypeTableRecord
  2
DASHDOT
 70
     0
  3
Dash dot __ . __ . __ . __ . __ . __ . __ . __
 72
    65
 73
     4
 40
25.4
 49
12.7
 74
     0
 49
-6.35
 74
     0
 49
0.0
 74
     0
 49
-6.35
 74
     0
  0
LTYPE
  5
371
330
297
100
AcDbSymbolTableRecord
100
AcDbLinetypeTableRecord
  2
DASHDOT2
 70
     0
  3
Dash dot (.5x) _._._._._._._._._._._._._._._.
 72
    65
 73
     4
 40
12.7
 49
6.35
 74
     0
 49
-3.175
 74
     0
 49
0.0
 74
     0
 49
-3.175
 74
     0
  0
LTYPE
  5
372
330
297
100
AcDbSymbolTableRecord
100
AcDbLinetypeTableRecord
  2
DASHDOTX2
 70
     0
  3
Dash dot (2x) ____  .  ____  .  ____  .  ___
 72
    65
 73
     4
 40
50.8
 49
25.4
 74
     0
 49
-12.7
 74
     0
 49
0.0
 74
     0
 49
-12.7
 74
     0
  0
LTYPE
  5
373
330
297
100
AcDbSymbolTableRecord
100
AcDbLinetypeTableRecord
  2
BORDER2
 70
     0
  3
Border (.5x) __.__.__.__.__.__.__.__.__.__.__.
 72
    65
 73
     6
 40
22.225
 49
6.35
 74
     0
 49
-3.175
 74
     0
 49
6.35
 74
     0
 49
-3.175
 74
     0
 49
0.0
 74
     0
 49
-3.175
 74
     0
  0
LTYPE
  5
374
330
297
100
AcDbSymbolTableRecord
100
AcDbLinetypeTableRecord
  2
BORDERX2
 70
     0
  3
Border (2x) ____  ____  .  ____  ____  .  ___
 72
    65
 73
     6
 40
88.89999999999999
 49
25.4
 74
     0
 49
-12.7
 74
     0
 49
25.4
 74
     0
 49
-12.7
 74
     0
 49
0.0
 74
     0
 49
-12.7
 74
     0
  0
LTYPE
  5
375
330
297
100
AcDbSymbolTableRecord
100
AcDbLinetypeTableRecord
  2
CENTER
 70
     0
  3
Center ____ _ ____ _ ____ _ ____ _ ____ _ ____
 72
    65
 73
     4
 40
50.8
 49
31.75
 74
     0
 49
-6.35
 74
     0
 49
6.35
 74
     0
 49
-6.35
 74
     0
  0
ENDTAB
  0
TABLE
  2
LAYER
  5
295
330
0
100
AcDbSymbolTable
 70
     1
  0
LAYER
  5
2A2
330
295
100
AcDbSymbolTableRecord
100
AcDbLayerTableRecord
  2
0
 70
     0
 62
     7
420
 16777215
  6
Continuous
370
    25
390
2A1
347
2D7
348
0
  0
ENDTAB
  0
TABLE
  2
STYLE
  5
296
330
0
100
AcDbSymbolTable
 70
    21
  0
STYLE
  5
2A3
330
296
100
AcDbSymbolTableRecord
100
AcDbTextStyleTableRecord
  2
Standard
 70
     0
 40
0.0
 41
1.0
 50
0.0
 71
     0
 42
0.2
  3
txt
  4

  0
STYLE
  5
33A
330
296
100
AcDbSymbolTableRecord
100
AcDbTextStyleTableRecord
  2
QCADDimTextStyle
 70
     0
 40
0.0
 41
1.0
 50
0.0
 71
     0
 42
0.2
  3

  4

1001
ACAD
1000
DejaVu Sans
1071
        0
  0
STYLE
  5
346
330
296
100
AcDbSymbolTableRecord
100
AcDbTextStyleTableRecord
  2
textstyle0
 70
     0
 40
0.0
 41
1.0
 50
0.0
 71
     0
 42
0.2
  3
ltypeshp.shx
  4

  0
STYLE
  5
348
330
296
100
AcDbSymbolTableRecord
100
AcDbTextStyleTableRecord
  2
textstyle1
 70
     0
 40
0.0
 41
1.0
 50
0.0
 71
     0
 42
0.2
  3
ltypeshp.shx
  4

  0
STYLE
  5
349
330
296
100
AcDbSymbolTableRecord
100
AcDbTextStyleTableRecord
  2
textstyle2
 70
     0
 40
0.0
 41
1.0
 50
0.0
 71
     0
 42
0.2
  3
ltypeshp.shx
  4

  0
STYLE
  5
34C
330
296
100
AcDbSymbolTableRecord
100
AcDbTextStyleTableRecord
  2
textstyle3
 70
     0
 40
0.0
 41
1.0
 50
0.0
 71
     0
 42
0.2
  3
STANDARD
  4

  0
STYLE
  5
358
330
296
100
AcDbSymbolTableRecord
100
AcDbTextStyleTableRecord
  2
textstyle4
 70
     0
 40
0.0
 41
1.0
 50
0.0
 71
     0
 42
0.2
  3
ltypeshp.shx
  4

  0
STYLE
  5
35A
330
296
100
AcDbSymbolTableRecord
100
AcDbTextStyleTableRecord
  2
textstyle5
 70
     0
 40
0.0
 41
1.0
 50
0.0
 71
     0
 42
0.2
  3
STANDARD
  4

  0
STYLE
  5
35F
330
296
100
AcDbSymbolTableRecord
100
AcDbTextStyleTableRecord
  2
textstyle6
 70
     0
 40
0.0
 41
1.0
 50
0.0
 71
     0
 42
0.2
  3
qcadshp.shx
  4

  0
STYLE
  5
361
330
296
100
AcDbSymbolTableRecord
100
AcDbTextStyleTableRecord
  2
textstyle7
 70
     0
 40
0.0
 41
1.0
 50
0.0
 71
     0
 42
0.2
  3
qcadshp.shx
  4

  0
STYLE
  5
363
330
296
100
AcDbSymbolTableRecord
100
AcDbTextStyleTableRecord
  2
textstyle8
 70
     0
 40
0.0
 41
1.0
 50
0.0
 71
     0
 42
0.2
  3
ltypeshp.shx
  4

  0
STYLE
  5
367
330
296
100
AcDbSymbolTableRecord
100
AcDbTextStyleTableRecord
  2
textstyle9
 70
     0
 40
0.0
 41
1.0
 50
0.0
 71
     0
 42
0.2
  3
ltypeshp.shx
  4

  0
STYLE
  5
368
330
296
100
AcDbSymbolTableRecord
100
AcDbTextStyleTableRecord
  2
textstyle10
 70
     0
 40
0.0
 41
1.0
 50
0.0
 71
     0
 42
0.2
  3
ltypeshp.shx
  4

  0
STYLE
  5
378
330
296
100
AcDbSymbolTableRecord
100
AcDbTextStyleTableRecord
  2
textstyle11
 70
     0
 40
0.0
 41
1.0
 50
0.0
 71
     0
 42
0.2
  3

  4

1001
ACAD
1000
DejaVu Sans
1071
        0
  0
STYLE
  5
379
330
296
100
AcDbSymbolTableRecord
100
AcDbTextStyleTableRecord
  2
textstyle12
 70
     0
 40
0.0
 41
1.0
 50
0.0
 71
     0
 42
0.2
  3

  4

1001
ACAD
1000
DejaVu Sans
1071
        0
  0
STYLE
  5
37A
330
296
100
AcDbSymbolTableRecord
100
AcDbTextStyleTableRecord
  2
textstyle13
 70
     0
 40
0.0
 41
1.0
 50
0.0
 71
     0
 42
0.2
  3

  4

1001
ACAD
1000
DejaVu Sans
1071
        0
  0
STYLE
  5
37B
330
296
100
AcDbSymbolTableRecord
100
AcDbTextStyleTableRecord
  2
textstyle14
 70
     0
 40
0.0
 41
1.0
 50
0.0
 71
     0
 42
0.2
  3

  4

1001
ACAD
1000
DejaVu Sans
1071
        0
  0
STYLE
  5
37C
330
296
100
AcDbSymbolTableRecord
100
AcDbTextStyleTableRecord
  2
textstyle15
 70
     0
 40
0.0
 41
1.0
 50
0.0
 71
     0
 42
0.2
  3

  4

1001
ACAD
1000
DejaVu Sans
1071
        0
  0
STYLE
  5
37D
330
296
100
AcDbSymbolTableRecord
100
AcDbTextStyleTableRecord
  2
textstyle16
 70
     0
 40
0.0
 41
1.0
 50
0.0
 71
     0
 42
0.2
  3

  4

1001
ACAD
1000
DejaVu Sans
1071
        0
  0
STYLE
  5
37E
330
296
100
AcDbSymbolTableRecord
100
AcDbTextStyleTableRecord
  2
textstyle17
 70
     0
 40
0.0
 41
1.0
 50
0.0
 71
     0
 42
0.2
  3

  4

1001
ACAD
1000
DejaVu Sans
1071
        0
  0
STYLE
  5
37F
330
296
100
AcDbSymbolTableRecord
100
AcDbTextStyleTableRecord
  2
textstyle18
 70
     0
 40
0.0
 41
1.0
 50
0.0
 71
     0
 42
0.2
  3

  4

1001
ACAD
1000
DejaVu Sans
1071
        0
  0
ENDTAB
  0
TABLE
  2
VIEW
  5
298
330
0
100
AcDbSymbolTable
 70
     0
  0
ENDTAB
  0
TABLE
  2
UCS
  5
299
330
0
100
AcDbSymbolTable
 70
     0
  0
ENDTAB
  0
TABLE
  2
APPID
  5
29B
330
0
100
AcDbSymbolTable
 70
     2
  0
APPID
  5
2A4
330
29B
100
AcDbSymbolTableRecord
100
AcDbRegAppTableRecord
  2
ACAD
 70
     0
  0
APPID
  5
2FF
330
29B
100
AcDbSymbolTableRecord
100
AcDbRegAppTableRecord
  2
QCAD
 70
     0
  0
ENDTAB
  0
TABLE
  2
DIMSTYLE
  5
29C
330
0
100
AcDbSymbolTable
 70
     2
100
AcDbDimStyleTable
  0
DIMSTYLE
105
2B8
330
29C
100
AcDbSymbolTableRecord
100
AcDbDimStyleTableRecord
  2
Standard
 70
     0
178
     0
340
2A3
  0
DIMSTYLE
105
33B
330
29C
100
AcDbSymbolTableRecord
100
AcDbDimStyleTableRecord
  2
QCADDimStyle
 70
     0
 41
10.0
 42
2.5
 44
5.0
 73
     0
 77
     1
140
10.0
147
2.5
178
     0
340
33A
  0
ENDTAB
  0
TABLE
  2
BLOCK_RECORD
  5
294
330
0
100
AcDbSymbolTable
 70
     0
  0
BLOCK_RECORD
  5
2B0
330
294
100
AcDbSymbolTableRecord
100
AcDbBlockTableRecord
  2
*Model_Space
340
2B3
 70
     0
280
     1
281
     0
  0
BLOCK_RECORD
  5
2AC
330
294
100
AcDbSymbolTableRecord
100
AcDbBlockTableRecord
  2
*Paper_Space
340
2AF
 70
     0
280
     1
281
     0
  0
ENDTAB
  0
ENDSEC
  0
SECTION
  2
BLOCKS
  0
BLOCK
  5
2B1
330
2B0
100
AcDbEntity
  8
0
100
AcDbBlockBegin
  2
*Model_Space
 70
     0
 10
0.0
 20
0.0
 30
0.0
  3
*Model_Space
  1

  0
ENDBLK
  5
2B2
330
2B0
100
AcDbEntity
  8
0
100
AcDbBlockEnd
  0
BLOCK
  5
2AD
330
2AC
100
AcDbEntity
 67
     1
  8
0
100
AcDbBlockBegin
  2
*Paper_Space
 70
     0
 10
0.0
 20
0.0
 30
0.0
  3
*Paper_Space
  1

  0
ENDBLK
  5
2AE
330
2AC
100
AcDbEntity
 67
     1
  8
0
100
AcDbBlockEnd
  0
ENDSEC
  0
SECTION
  2
ENTITIES
  0
SPLINE
  5
94
330
2B0
100
AcDbEntity
  8
0
100
AcDbSpline
210
0.0
220
0.0
230
1.0
 70
  1064
 71
     3
 72
    37
 73
    33
 74
    31
 42
0.000000001
 43
0.0000000001
 44
0.0
 40
0.0
 40
0.0
 40
0.0
 40
0.0
 40
19.93614148041682
 40
42.48118499154811
 40
68.06793277554175
 40
96.19086155355131
 40
125.9114288743613
 40
156.0848288885807
 40
212.7224266523932
 40
268.686796652393
 40
298.7756466523932
 40
329.1911766523932
 40
359.1250366523931
 40
387.768906652393
 40
414.314446652393
 40
437.9533366523931
 40
459.8753124090372
 40
481.8084650426649
 40
503.7502541322742
 40
525.697445698944
 40
547.6461996408082
 40
569.5920579500223
 40
591.5300116540712
 40
614.9278764074869
 40
639.3617897347299
 40
665.1079667079624
 40
690.3989459866558
 40
718.4303438699189
 40
746.0365209935013
 40
772.2692063395596
 40
796.2177609784452
 40
817.0511255883686
 40
817.0511255883686
 40
817.0511255883686
 40
817.0511255883686
 10
9.2736268324677
 20
153.7771404711673
 30
0.0
 10
13.37160563585005
 20
148.4632496063024
 30
0.0
 10
22.10383678544002
 20
137.1400765099957
 30
0.0
 10
42.4973560758944
 20
126.1152128143498
 30
0.0
 10
66.39449162044882
 20
117.5685602291957
 30
0.0
 10
93.63900906635058
 20
111.5680483883976
 30
0.0
 10
122.7060365297936
 20
107.5323086196875
 30
0.0
 10
161.4429052959917
 20
104.3673280976974
 30
0.0
 10
209.0541054654192
 20
103.5785226913125
 30
0.0
 10
256.6121699810977
 20
103.8036480069881
 30
0.0
 10
295.4358704829947
 20
103.7719392799645
 30
0.0
 10
325.5817847778837
 20
103.778216070088
 30
0.0
 10
355.2462522882636
 20
103.7779541117727
 30
0.0
 10
383.6206497735201
 20
103.773196867883
 30
0.0
 10
409.8968019945123
 20
103.7903238948959
 30
0.0
 10
433.9321107773388
 20
103.7350475317229
 30
0.0
 10
456.4306558258228
 20
103.9221893349453
 30
0.0
 10
478.3536201886038
 20
104.6258165646318
 30
0.0
 10
500.2664016003211
 20
105.7572424435732
 30
0.0
 10
522.1577511425003
 20
107.3255175850953
 30
0.0
 10
544.0152634653746
 20
109.320626944318
 30
0.0
 10
565.8310922968805
 20
111.70640396143
 30
0.0
 10
588.0672687401182
 20
114.6342176973405
 30
0.0
 10
611.109956008052
 20
117.7798079290242
 30
0.0
 10
635.3945919167693
 20
121.2144210420785
 30
0.0
 10
660.3606594516642
 20
124.3215793639251
 30
0.0
 10
686.4189393315366
 20
128.2862727245308
 30
0.0
 10
713.162367836347
 20
131.8232587473826
 30
0.0
 10
740.1205953966169
 20
136.1125077187163
 30
0.0
 10
765.5782934296636
 20
141.0093722942476
 30
0.0
 10
788.6725715601738
 20
146.3828385517537
 30
0.0
 10
802.732631037023
 20
151.4293919152872
 30
0.0
 10
809.2736268324678
 20
153.7771404711673
 30
0.0
 11
9.2736268324677
 21
153.7771404711673
 31
0.0
 11
22.44748683246769
 21
138.8138804711674
 31
0.0
 11
41.73156683246771
 21
127.1347004711673
 31
0.0
 11
65.76020683246782
 21
118.3423104711674
 31
0.0
 11
93.16773683246777
 21
112.0394204711673
 31
0.0
 11
122.5885168324677
 21
107.8287404711673
 31
0.0
 11
152.6568568324677
 21
105.3129904711674
 31
0.0
 11
209.2736268324678
 21
103.7771404711673
 31
0.0
 11
265.2379968324677
 21
103.7771404711673
 31
0.0
 11
295.3268468324678
 21
103.7771404711673
 31
0.0
 11
325.7423768324678
 21
103.7771404711673
 31
0.0
 11
355.6762368324678
 21
103.7771404711673
 31
0.0
 11
384.3201068324677
 21
103.7771404711673
 31
0.0
 11
410.8656468324677
 21
103.7771404711673
 31
0.0
 11
434.5045368324678
 21
103.7771404711673
 31
0.0
 11
456.4252868324676
 21
104.0089604711674
 31
0.0
 11
478.3476468324677
 21
104.6969404711674
 31
0.0
 11
500.2601668324677
 21
105.8298904711673
 31
0.0
 11
522.1513668324677
 21
107.3966004711673
 31
0.0
 11
544.0097868324677
 21
109.3858904711673
 31
0.0
 11
565.8239468324679
 21
111.7865404711673
 31
0.0
 11
587.5823768324677
 21
114.5873504711674
 31
0.0
 11
610.7653272835514
 21
117.7513484802894
 31
0.0
 11
634.9703982537798
 21
121.0876128297427
 31
0.0
 11
660.4951678282548
 21
124.4568511571638
 31
0.0
 11
685.5264868324676
 21
128.0716404711673
 31
0.0
 11
713.2862568324678
 21
131.9645104711673
 31
0.0
 11
740.5444468324678
 21
136.3339604711672
 31
0.0
 11
766.2974668324678
 21
141.3275304711673
 31
0.0
 11
789.5417268324676
 21
147.0927404711673
 31
0.0
 11
809.2736268324678
 21
153.7771404711673
 31
0.0
  0
SPLINE
  5
95
330
2B0
100
AcDbEntity
  8
0
100
AcDbSpline
210
0.0
220
0.0
230
1.0
 70
  1064
 71
     3
 72
    37
 73
    33
 74
    31
 42
0.000000001
 43
0.0000000001
 44
0.0
 40
0.0
 40
0.0
 40
0.0
 40
0.0
 40
19.93614148041692
 40
42.48118499154816
 40
68.06793277554182
 40
96.19086155355137
 40
125.9114288743613
 40
156.0848288885808
 40
212.7224266523933
 40
268.6867966523931
 40
298.7756466523933
 40
329.1911766523933
 40
359.1250366523932
 40
387.7689066523931
 40
414.3144466523931
 40
437.9533366523933
 40
459.8753124090373
 40
481.808465042665
 40
503.7502541322742
 40
525.697445698944
 40
547.6461996408082
 40
569.5920579500224
 40
591.5300116540711
 40
614.9278764074869
 40
639.3617897347299
 40
665.1079667079626
 40
690.3989459866561
 40
718.4303438699192
 40
746.0365209935019
 40
772.2692063395593
 40
796.2177609784462
 40
817.0511255883683
 40
817.0511255883683
 40
817.0511255883683
 40
817.0511255883683
 10
9.2736268324677
 20
153.7771404711673
 30
0.0
 10
13.37160563585004
 20
159.0910313360322
 30
0.0
 10
22.10383678543995
 20
170.414204432339
 30
0.0
 10
42.49735607589446
 20
181.4390681279848
 30
0.0
 10
66.39449162044879
 20
189.985720713139
 30
0.0
 10
93.63900906635058
 20
195.986232553937
 30
0.0
 10
122.7060365297936
 20
200.0219723226472
 30
0.0
 10
161.4429052959918
 20
203.1869528446375
 30
0.0
 10
209.0541054654191
 20
203.975758251022
 30
0.0
 10
256.6121699810977
 20
203.7506329353468
 30
0.0
 10
295.4358704829947
 20
203.7823416623699
 30
0.0
 10
325.5817847778837
 20
203.776064872247
 30
0.0
 10
355.2462522882636
 20
203.7763268305619
 30
0.0
 10
383.6206497735201
 20
203.7810840744515
 30
0.0
 10
409.8968019945124
 20
203.7639570474386
 30
0.0
 10
433.9321107773388
 20
203.819233410612
 30
0.0
 10
456.430655825823
 20
203.632091607389
 30
0.0
 10
478.3536201886036
 20
202.928464377702
 30
0.0
 10
500.2664016003212
 20
201.7970384987625
 30
0.0
 10
522.1577511425003
 20
200.2287633572396
 30
0.0
 10
544.0152634653747
 20
198.2336539980179
 30
0.0
 10
565.8310922968802
 20
195.8478769809031
 30
0.0
 10
588.0672687401184
 20
192.9200632449975
 30
0.0
 10
611.109956008052
 20
189.7744730133097
 30
0.0
 10
635.3945919167693
 20
186.339859900258
 30
0.0
 10
660.3606594516644
 20
183.2327015784091
 30
0.0
 10
686.4189393315363
 20
179.2680082178026
 30
0.0
 10
713.1623678363474
 20
175.7310221949533
 30
0.0
 10
740.120595396616
 20
171.4417732236122
 30
0.0
 10
765.5782934296652
 20
166.5449086480919
 30
0.0
 10
788.6725715601722
 20
161.1714423905745
 30
0.0
 10
802.7326310370227
 20
156.1248890270452
 30
0.0
 10
809.2736268324678
 20
153.7771404711673
 30
0.0
 11
9.2736268324677
 21
153.7771404711673
 31
0.0
 11
22.44748683246769
 21
168.7404004711673
 31
0.0
 11
41.73156683246771
 21
180.4195804711673
 31
0.0
 11
65.76020683246782
 21
189.2119704711673
 31
0.0
 11
93.16773683246777
 21
195.5148604711673
 31
0.0
 11
122.5885168324677
 21
199.7255404711674
 31
0.0
 11
152.6568568324677
 21
202.2412904711674
 31
0.0
 11
209.2736268324678
 21
203.7771404711674
 31
0.0
 11
265.2379968324677
 21
203.7771404711674
 31
0.0
 11
295.3268468324678
 21
203.7771404711673
 31
0.0
 11
325.7423768324678
 21
203.7771404711675
 31
0.0
 11
355.6762368324678
 21
203.7771404711673
 31
0.0
 11
384.3201068324677
 21
203.7771404711673
 31
0.0
 11
410.8656468324677
 21
203.7771404711672
 31
0.0
 11
434.5045368324678
 21
203.7771404711674
 31
0.0
 11
456.4252868324676
 21
203.5453204711669
 31
0.0
 11
478.3476468324677
 21
202.8573404711668
 31
0.0
 11
500.2601668324677
 21
201.724390471168
 31
0.0
 11
522.1513668324677
 21
200.1576804711679
 31
0.0
 11
544.0097868324677
 21
198.168390471168
 31
0.0
 11
565.8239468324679
 21
195.7677404711671
 31
0.0
 11
587.5823768324677
 21
192.9669304711691
 31
0.0
 11
610.7653272835514
 21
189.8029324620457
 31
0.0
 11
634.9703982537798
 21
186.466668112593
 31
0.0
 11
660.4951678282548
 21
183.0974297851707
 31
0.0
 11
685.5264868324676
 21
179.4826404711667
 31
0.0
 11
713.2862568324678
 21
175.5897704711669
 31
0.0
 11
740.5444468324678
 21
171.2203204711644
 31
0.0
 11
766.2974668324678
 21
166.2267504711685
 31
0.0
 11
789.5417268324676
 21
160.4615404711634
 31
0.0
 11
809.2736268324678
 21
153.7771404711673
 31
0.0
  0
SPLINE
  5
AC
330
2B0
100
AcDbEntity
  8
0
100
AcDbSpline
210
0.0
220
0.0
230
1.0
 70
  1067
 71
     3
 72
    31
 73
    27
 74
    25
 42
0.000000001
 43
0.0000000001
 44
0.0
 40
0.0
 40
0.0
 40
0.0
 40
0.0
 40
28.34198802385606
 40
52.82541261324715
 40
73.48524692062738
 40
90.36073084968838
 40
103.5123513981075
 40
113.0240696838906
 40
116.4607956785692
 40
119.0642392257583
 40
120.0818450276284
 40
120.9372569738862
 40
121.6700679220849
 40
122.3422801198323
 40
123.014492317579
 40
123.7473032657779
 40
124.6027152120355
 40
125.6203210139057
 40
128.2237645610948
 40
131.6604905557734
 40
141.1722088415565
 40
154.3238293899755
 40
171.1993133190367
 40
191.8591476264168
 40
216.3425722158078
 40
244.6845602396639
 40
244.6845602396639
 40
244.6845602396639
 40
244.6845602396639
 10
744.0213248661153
 20
23.57278433463182
 30
0.0
 10
734.6533702004335
 20
24.79956796813435
 30
0.0
 10
717.1928423736528
 20
27.08611722404406
 30
0.0
 10
692.8014208979553
 20
29.39719735538284
 30
0.0
 10
672.1648045088308
 20
30.68133915634626
 30
0.0
 10
655.2576178894913
 20
30.90314067912504
 30
0.0
 10
642.0933656013442
 20
30.16886773367437
 30
0.0
 10
633.4542527515139
 20
28.87767233312361
 30
0.0
 10
628.4799549155864
 20
27.39916604059095
 30
0.0
 10
626.318690519005
 20
26.42712621154581
 30
0.0
 10
625.0991676651322
 20
25.55793568974267
 30
0.0
 10
624.4883532284609
 20
24.93159351126204
 30
0.0
 10
624.1079441263204
 20
24.26830940238844
 30
0.0
 10
623.9798831835083
 20
23.5727843346318
 30
0.0
 10
624.1079441263205
 20
22.87725926687521
 30
0.0
 10
624.4883532284609
 20
22.21397515800166
 30
0.0
 10
625.0991676651325
 20
21.58763297952138
 30
0.0
 10
626.318690519005
 20
20.71844245771787
 30
0.0
 10
628.4799549155863
 20
19.74640262867259
 30
0.0
 10
633.4542527515141
 20
18.2678963361403
 30
0.0
 10
642.0933656013441
 20
16.97670093558954
 30
0.0
 10
655.257617889491
 20
16.24242799013848
 30
0.0
 10
672.1648045088309
 20
16.46422951291746
 30
0.0
 10
692.8014208979553
 20
17.74837131388083
 30
0.0
 10
717.1928423736526
 20
20.05945144521944
 30
0.0
 10
734.6533702004335
 20
22.34600070112923
 30
0.0
 10
744.0213248661153
 20
23.57278433463182
 30
0.0
 11
744.0213248661153
 21
23.57278433463182
 31
0.0
 11
715.8963248661153
 21
27.07316433463188
 31
0.0
 11
691.5213248661153
 21
29.37478433463195
 31
0.0
 11
670.8963248661152
 21
30.57400433463195
 31
0.0
 11
654.0213248661153
 21
30.7018043346319
 31
0.0
 11
640.8963248661153
 21
29.86544433463203
 31
0.0
 11
631.5213248661153
 21
28.25853433463203
 31
0.0
 11
628.2400748661153
 21
27.23653433463201
 31
0.0
 11
625.8963248661152
 21
26.10306433463197
 31
0.0
 11
625.0760048661152
 21
25.5009043346322
 31
0.0
 11
624.4900748661152
 21
24.87767433463188
 31
0.0
 11
624.1385048661152
 21
24.23470433463186
 31
0.0
 11
624.0213248661153
 21
23.57278433463162
 31
0.0
 11
624.1385048661152
 21
22.91086433463195
 31
0.0
 11
624.4900748661152
 21
22.26789433463185
 31
0.0
 11
625.0760048661153
 21
21.64466433463178
 31
0.0
 11
625.8963248661153
 21
21.04250433463184
 31
0.0
 11
628.2400748661153
 21
19.9090343346316
 31
0.0
 11
631.5213248661153
 21
18.88703433463172
 31
0.0
 11
640.8963248661153
 21
17.28012433463184
 31
0.0
 11
654.0213248661152
 21
16.44376433463174
 31
0.0
 11
670.8963248661153
 21
16.57156433463172
 31
0.0
 11
691.5213248661153
 21
17.77078433463171
 31
0.0
 11
715.8963248661152
 21
20.07240433463167
 31
0.0
 11
744.0213248661153
 21
23.57278433463182
 31
0.0
  0
SPLINE
  5
AD
330
2B0
100
AcDbEntity
  8
0
100
AcDbSpline
210
0.0
220
0.0
230
1.0
 70
  1067
 71
     3
 72
    31
 73
    27
 74
    25
 42
0.000000001
 43
0.0000000001
 44
0.0
 40
0.0
 40
0.0
 40
0.0
 40
0.0
 40
18.90613723930131
 40
35.23388124780844
 40
49.00851697915169
 40
60.25839705777366
 40
69.02729126046538
 40
75.37586715782223
 40
77.67552726272906
 40
79.42502131007619
 40
80.11342115391616
 40
80.69640889006503
 40
81.20068217599263
 40
81.66691351771036
 40
82.13314485942816
 40
82.63741814535541
 40
83.22040588150443
 40
83.90880572534435
 40
85.65829977269145
 40
87.95795987759809
 40
94.30653577495498
 40
103.0754299776467
 40
114.3253100562688
 40
128.099945787612
 40
144.4276897961192
 40
163.3338270354205
 40
163.3338270354205
 40
163.3338270354205
 40
163.3338270354205
 10
841.185646794062
 20
20.76110371145762
 30
0.0
 10
834.9409942618609
 20
21.61296340009849
 30
0.0
 10
823.3033263993842
 20
23.20050731398561
 30
0.0
 10
807.0421496684412
 20
24.80551984019379
 30
0.0
 10
793.284298179191
 20
25.69739806376669
 30
0.0
 10
782.0115490384483
 20
25.85135642456864
 30
0.0
 10
773.2333679259622
 20
25.34151718753218
 30
0.0
 10
767.4721299176832
 20
24.44355826355785
 30
0.0
 10
764.1575018374006
 20
23.41699478681683
 30
0.0
 10
762.7169243041412
 20
22.74099871927404
 30
0.0
 10
761.9056990498682
 20
22.13810815981748
 30
0.0
 10
761.4986309048022
 20
21.70252321548071
 30
0.0
 10
761.2460671103587
 20
21.24207228034329
 30
0.0
 10
761.1614913360382
 20
20.76110371145754
 30
0.0
 10
761.2460671103587
 20
20.28013514257192
 30
0.0
 10
761.4986309048024
 20
19.8196842074346
 30
0.0
 10
761.905699049868
 20
19.38409926309772
 30
0.0
 10
762.7169243041413
 20
18.78120870364135
 30
0.0
 10
764.1575018374008
 20
18.10521263609848
 30
0.0
 10
767.4721299176832
 20
17.07864915935806
 30
0.0
 10
773.2333679259618
 20
16.18069023538289
 30
0.0
 10
782.0115490384483
 20
15.67085099834703
 30
0.0
 10
793.2842981791908
 20
15.82480935914783
 30
0.0
 10
807.042149668441
 20
16.71668758272149
 30
0.0
 10
823.3033263993843
 20
18.32170010892941
 30
0.0
 10
834.9409942618611
 20
19.90924402281667
 30
0.0
 10
841.185646794062
 20
20.76110371145762
 30
0.0
 11
841.185646794062
 21
20.76110371145762
 31
0.0
 11
822.4364167940621
 21
23.19182371145749
 31
0.0
 11
806.1870867940609
 21
24.79010371145762
 31
0.0
 11
792.4376467940609
 21
25.62286371145748
 31
0.0
 11
781.188116794062
 21
25.71161371145766
 31
0.0
 11
772.438476794062
 21
25.13083371145748
 31
0.0
 11
766.1887367940619
 21
24.01496371145782
 31
0.0
 11
764.0013267940619
 21
23.30526371145774
 31
0.0
 11
762.438886794061
 21
22.51817371145771
 31
0.0
 11
761.892036794062
 21
22.10002371145762
 31
0.0
 11
761.501426794062
 21
21.66724371145767
 31
0.0
 11
761.2670567940619
 21
21.22074371145749
 31
0.0
 11
761.188936794062
 21
20.76110371145757
 31
0.0
 11
761.267056794062
 21
20.30146371145759
 31
0.0
 11
761.501426794062
 21
19.85496371145774
 31
0.0
 11
761.892036794062
 21
19.42218371145759
 31
0.0
 11
762.438886794061
 21
19.00403371145759
 31
0.0
 11
764.0013267940619
 21
18.21694371145762
 31
0.0
 11
766.1887367940618
 21
17.50724371145782
 31
0.0
 11
772.4384767940619
 21
16.3913737114579
 31
0.0
 11
781.1881167940619
 21
15.81059371145773
 31
0.0
 11
792.4376467940609
 21
15.89934371145739
 31
0.0
 11
806.1870867940609
 21
16.73210371145746
 31
0.0
 11
822.4364167940621
 21
18.33038371145761
 31
0.0
 11
841.185646794062
 21
20.76110371145762
 31
0.0
  0
MTEXT
  5
AE
330
2B0
100
AcDbEntity
  8
0
100
AcDbMText
 10
645.9834836952825
 20
22.55097496779706
 30
0.0
 40
3.5
 41
0.0
 46
0.0
 71
     7
 72
     1
  1
Horz stab root
  7
textstyle11
 73
     1
 44
1.5
  0
MTEXT
  5
AF
330
2B0
100
AcDbEntity
  8
0
100
AcDbMText
 10
778.5115255892482
 20
18.18518330125909
 30
0.0
 40
3.5
 41
0.0
 46
0.0
 71
     7
 72
     1
  1
Tail tips
  7
textstyle12
 73
     1
 44
1.5
  0
MTEXT
  5
B0
330
2B0
100
AcDbEntity
  8
0
100
AcDbMText
 10
841.1455377093251
 20
47.92873155236146
 30
0.0
 40
3.5
 41
0.0
 46
0.0
 71
     7
 72
     1
  1
Vert stab root
  7
textstyle13
 11
-1.0
 21
1.224646799147353E-16
 31
0.0
 73
     1
 44
1.5
  0
MTEXT
  5
B2
330
2B0
100
AcDbEntity
  8
0
100
AcDbMText
 10
802.1587221313401
 20
89.97033657258038
 30
0.0
 40
3.5
 41
0.0
 46
0.0
 71
     7
 72
     1
  1
Wing root
  7
textstyle14
 11
-1.0
 21
1.224646799147353E-16
 31
0.0
 73
     1
 44
1.5
  0
MTEXT
  5
C1
330
2B0
100
AcDbEntity
  8
0
100
AcDbMText
 10
740.6920778663457
 20
113.9523863221913
 30
0.0
 40
3.5
 41
0.0
 46
0.0
 71
     7
 72
     1
  1
Wing middle
  7
textstyle15
 73
     1
 44
1.5
  0
MTEXT
  5
205
330
2B0
100
AcDbEntity
  8
0
100
AcDbMText
 10
659.784125790741
 20
152.1457009163099
 30
0.0
 40
3.5
 41
0.0
 46
0.0
 71
     7
 72
     1
  1
V
  7
textstyle16
 73
     1
 44
1.5
  0
MTEXT
  5
206
330
2B0
100
AcDbEntity
  8
0
100
AcDbMText
 10
733.9113939817067
 20
152.2603364446839
 30
0.0
 40
3.5
 41
0.0
 46
0.0
 71
     7
 72
     1
  1
H
  7
textstyle17
 73
     1
 44
1.5
  0
MTEXT
  5
B3
330
2B0
100
AcDbEntity
  8
0
100
AcDbMText
 10
710.71025633566
 20
64.15019151646418
 30
0.0
 40
3.5
 41
0.0
 46
0.0
 71
     7
 72
     1
  1
Wing tip
  7
textstyle18
 73
     1
 44
1.5
  0
SPLINE
  5
B4
330
2B0
100
AcDbEntity
  8
0
100
AcDbSpline
210
0.0
220
0.0
230
1.0
 70
  1067
 71
     3
 72
    31
 73
    27
 74
    25
 42
0.000000001
 43
0.0000000001
 44
0.0
 40
0.0
 40
0.0
 40
0.0
 40
0.0
 40
37.6630152291415
 40
70.2444122465842
 40
97.77054735883337
 40
120.270910359027
 40
137.790884666152
 40
150.3937483329301
 40
154.8865333462616
 40
158.2107410069833
 40
159.459300248703
 40
160.4586792910232
 40
161.2543848087772
 40
161.9344908342586
 40
162.6145968597398
 40
163.4103023774938
 40
164.4096814198141
 40
165.6582406615339
 40
168.9824483222554
 40
173.4752333355869
 40
186.078097002365
 40
203.5980713094901
 40
226.0984343096837
 40
253.6245694219328
 40
286.2059664393756
 40
323.8689816685171
 40
323.8689816685171
 40
323.8689816685171
 40
323.8689816685171
 10
714.0960449245379
 20
46.82804374943223
 30
0.0
 10
726.5907308345445
 20
45.60096909787657
 30
0.0
 10
749.8942784292944
 20
43.31238075313573
 30
0.0
 10
782.4067934025313
 20
41.00251784868376
 30
0.0
 10
809.9153978751158
 20
39.71954658481459
 30
0.0
 10
832.4399769957336
 20
39.49704194506432
 30
0.0
 10
849.9684409932222
 20
40.23213376831137
 30
0.0
 10
861.4638539337785
 20
41.51248209926752
 30
0.0
 10
868.1108210617911
 20
42.9927015661585
 30
0.0
 10
870.9909967960702
 20
43.95489305672395
 30
0.0
 10
872.6358690476111
 20
44.82890657689456
 30
0.0
 10
873.4481796291027
 20
45.44648513885014
 30
0.0
 10
873.9686758898235
 20
46.10593590241768
 30
0.0
 10
874.1547410692904
 20
46.82804374943217
 30
0.0
 10
873.9686758898234
 20
47.55015159644663
 30
0.0
 10
873.4481796291026
 20
48.20960236001414
 30
0.0
 10
872.6358690476115
 20
48.82718092196983
 30
0.0
 10
870.9909967960698
 20
49.70119444214057
 30
0.0
 10
868.1108210617911
 20
50.66338593270569
 30
0.0
 10
861.4638539337785
 20
52.14360539959679
 30
0.0
 10
849.9684409932222
 20
53.42395373055309
 30
0.0
 10
832.4399769957332
 20
54.15904555380006
 30
0.0
 10
809.915397875116
 20
53.93654091404959
 30
0.0
 10
782.4067934025315
 20
52.65356965018064
 30
0.0
 10
749.8942784292946
 20
50.34370674572837
 30
0.0
 10
726.5907308345445
 20
48.05511840098777
 30
0.0
 10
714.0960449245379
 20
46.82804374943223
 30
0.0
 11
714.0960449245379
 21
46.82804374943223
 31
0.0
 11
751.5960449245379
 21
43.32765574943213
 31
0.0
 11
784.0960449245379
 21
41.02604074943218
 31
0.0
 11
811.5960449245379
 21
39.82682674943203
 31
0.0
 11
834.0960449245379
 21
39.69901774943213
 31
0.0
 11
851.5960449245379
 21
40.53537874943217
 31
0.0
 11
864.0960449245379
 21
42.1422927494321
 31
0.0
 11
868.4710449245379
 21
43.16429674943222
 31
0.0
 11
871.5960449245379
 21
44.2977567494323
 31
0.0
 11
872.6897949245379
 21
44.89992874943212
 31
0.0
 11
873.4710449245379
 21
45.52315174943206
 31
0.0
 11
873.9397949245379
 21
46.16612974943217
 31
0.0
 11
874.0960449245379
 21
46.8280437494322
 31
0.0
 11
873.9397949245379
 21
47.48995774943211
 31
0.0
 11
873.4710449245379
 21
48.13293574943222
 31
0.0
 11
872.6897949245379
 21
48.75615874943225
 31
0.0
 11
871.5960449245379
 21
49.35833074943216
 31
0.0
 11
868.4710449245379
 21
50.49179074943208
 31
0.0
 11
864.0960449245379
 21
51.51379474943215
 31
0.0
 11
851.5960449245379
 21
53.12070874943225
 31
0.0
 11
834.0960449245379
 21
53.95706974943224
 31
0.0
 11
811.5960449245379
 21
53.82926074943222
 31
0.0
 11
784.0960449245379
 21
52.63004674943215
 31
0.0
 11
751.5960449245379
 21
50.32843174943207
 31
0.0
 11
714.0960449245379
 21
46.82804374943223
 31
0.0
  0
SPLINE
  5
A6
330
2B0
100
AcDbEntity
  8
0
100
AcDbSpline
210
0.0
220
0.0
230
1.0
 70
     8
 71
     3
 72
    58
 73
    54
 74
     0
 42
0.000000001
 43
0.001
 40
0.403969446637354
 40
0.403969446637354
 40
0.403969446637354
 40
0.403969446637354
 40
0.4769471136317214
 40
1.414751932439368
 40
2.941731326062252
 40
5.363656843011048
 40
9.484567720403764
 40
14.83563623442087
 40
20.8524725532475
 40
25.01785086194673
 40
28.65377960062289
 40
33.06855926369158
 40
37.94179878088891
 40
42.01755294652947
 40
46.88762245030642
 40
49.58867416234138
 40
51.72130309239473
 40
54.27761061940232
 40
56.11453151922638
 40
58.90490740205136
 40
59.56739869748935
 40
62.92443885150242
 40
66.13626856207767
 40
67.00102152664579
 40
67.45496758453952
 40
67.84468609420979
 40
68.24630804730789
 40
68.60395612236337
 40
69.15276217873107
 40
69.80918269139993
 40
71.2489518336847
 40
73.09363243465758
 40
76.46103543999078
 40
79.92319200612127
 40
83.31505385686926
 40
86.45215431624975
 40
89.15320653597392
 40
92.52459226930708
 40
98.0990468454894
 40
103.9568282158679
 40
108.0453825724032
 40
109.5008755437041
 40
111.4809587474571
 40
114.1033623658066
 40
118.2388934244267
 40
122.6389355591659
 40
126.6468318457796
 40
130.7677427232351
 40
133.1896682402203
 40
134.7166476338649
 40
135.6544524526914
 40
136.1313995664088
 40
136.608346680363
 40
136.608346680363
 40
136.608346680363
 40
136.608346680363
 10
669.1727765308473
 20
59.4916501153877
 30
0.0
 10
668.9896464958523
 20
59.72071618694726
 30
0.0
 10
666.8466807367271
 20
62.20916137515738
 30
0.0
 10
658.1237596262162
 20
64.8645143673792
 30
0.0
 10
643.1173707323011
 20
70.07650725520897
 30
0.0
 10
616.4919154653252
 20
75.53325369354822
 30
0.0
 10
577.6526742995451
 20
82.73795791826585
 30
0.0
 10
526.6550423426582
 20
91.29409516044836
 30
0.0
 10
475.0938360234931
 20
96.20953433407163
 30
0.0
 10
429.100190529415
 20
98.96467945521954
 30
0.0
 10
388.3721041369341
 20
99.27363333876852
 30
0.0
 10
345.2947494705512
 20
99.1772987023756
 30
0.0
 10
300.7480523556102
 20
99.2015512272899
 30
0.0
 10
254.6848435653322
 20
99.2118796997569
 30
0.0
 10
215.8613151891083
 20
99.15083806732187
 30
0.0
 10
183.5167151679842
 20
99.2879933053859
 30
0.0
 10
158.8801635878672
 20
98.92309106591293
 30
0.0
 10
137.1628116222591
 20
97.75509911967598
 30
0.0
 10
113.2196120471721
 20
96.67206896758385
 30
0.0
 10
95.80263071615457
 20
93.82430110429186
 30
0.0
 10
73.21597558580845
 20
91.26933665755584
 30
0.0
 10
50.23642155054767
 20
84.8520816181706
 30
0.0
 10
25.50822253862702
 20
76.90305856664504
 30
0.0
 10
15.48508785314061
 20
65.27652479994815
 30
0.0
 10
12.84524372355645
 20
60.18250627127891
 30
0.0
 10
12.08744939422945
 20
56.0141411461047
 30
0.0
 10
12.76643957225997
 20
52.19862597771792
 30
0.0
 10
14.0854471671048
 20
48.03315319396727
 30
0.0
 10
16.58532253387307
 20
43.44342261646237
 30
0.0
 10
21.84424308352925
 20
36.19937925057367
 30
0.0
 10
34.1522637508898
 20
30.52348327636076
 30
0.0
 10
53.77198910802883
 20
20.44685549350061
 30
0.0
 10
82.5327377334246
 20
14.74712671519097
 30
0.0
 10
116.1136502671615
 20
9.613384167063863
 30
0.0
 10
149.4088447951292
 20
7.391330320162858
 30
0.0
 10
180.1659872891662
 20
6.854095678110916
 30
0.0
 10
210.8666892331562
 20
6.959046478617843
 30
0.0
 10
249.6888489169291
 20
6.879222587821893
 30
0.0
 10
299.0343950548732
 20
6.752517274407801
 30
0.0
 10
350.7703483089742
 20
6.675315016301759
 30
0.0
 10
388.7760385615301
 20
6.577361218136723
 30
0.0
 10
413.8571022696013
 20
6.662624911751898
 30
0.0
 10
434.0446458811881
 20
7.260246483027622
 30
0.0
 10
463.1194516525512
 20
9.151846842441635
 30
0.0
 10
500.0491122241862
 20
13.81714546639379
 30
0.0
 10
541.1735506283702
 20
21.46126791726204
 30
0.0
 10
581.9126508489622
 20
30.65536622113469
 30
0.0
 10
616.625534227311
 20
36.52150111119672
 30
0.0
 10
642.9041670170492
 20
42.03671275268057
 30
0.0
 10
658.5284726595852
 20
47.27904500923501
 30
0.0
 10
667.5217156044913
 20
50.28500465446678
 30
0.0
 10
672.5217524036713
 20
56.14247508336958
 30
0.0
 10
669.9560946706541
 20
58.76254841585178
 30
0.0
 10
668.673265809531
 20
60.07258508594911
 30
0.0
  0
LINE
  5
B5
330
2B0
100
AcDbEntity
  8
0
100
AcDbLine
 10
708.5371845690397
 20
61.41625658390146
 30
0.0
 11
767.0256943889974
 21
61.41625658390146
 31
0.0
  0
LINE
  5
B7
330
2B0
100
AcDbEntity
  8
0
100
AcDbLine
 10
805.1371907328672
 20
98.0641409756495
 30
0.0
 11
708.3547524323117
 21
98.06414097564958
 31
0.0
  0
LINE
  5
C2
330
2B0
100
AcDbEntity
  8
0
100
AcDbLine
 10
735.4573545642653
 20
108.4028583365792
 30
0.0
 11
830.0853415281522
 21
108.4028583365792
 31
0.0
  0
SPLINE
  5
B8
330
2B0
100
AcDbEntity
  8
0
100
AcDbSpline
210
0.0
220
0.0
230
1.0
 70
     8
 71
     3
 72
    27
 73
    23
 74
     0
 42
0.000000001
 43
0.001
 40
0.0
 40
0.0
 40
0.0
 40
0.0
 40
2.594060358192887
 40
4.838700257619855
 40
6.735217857846907
 40
8.291180621242553
 40
9.507285967235909
 40
10.38248018860018
 40
10.69528008954858
 40
10.92807869486754
 40
11.01653698205491
 40
11.08847416076053
 40
11.14727588577021
 40
11.19897260524158
 40
11.25066827333019
 40
11.30942249418448
 40
11.38118426988892
 40
11.46925497553671
 40
11.70038512647861
 40
12.00989667426743
 40
12.87244568608707
 40
13.56341773419284
 40
13.56341773419284
 40
13.56341773419284
 40
13.56341773419284
 10
796.1557770321948
 20
62.67784058390157
 30
0.0
 10
787.6328273915032
 20
64.14094815406395
 30
0.0
 10
771.7349711628647
 20
66.8700824045188
 30
0.0
 10
749.4607375504587
 20
69.73717284479642
 30
0.0
 10
730.5506748261753
 20
71.50238373673537
 30
0.0
 10
714.9918753983868
 20
72.23669269943989
 30
0.0
 10
702.8325385881282
 20
71.80046157777261
 30
0.0
 10
694.858133979031
 20
70.75835911791918
 30
0.0
 10
690.2765563947607
 20
69.54471865213202
 30
0.0
 10
688.2997076354814
 20
68.76204412629212
 30
0.0
 10
687.1837591089131
 20
68.06677738634326
 30
0.0
 10
686.6344645989484
 20
67.5777112840378
 30
0.0
 10
686.2921906394961
 20
67.06229354201375
 30
0.0
 10
686.1833380010911
 20
66.51568660944594
 30
0.0
 10
686.321982756336
 20
65.97612442114607
 30
0.0
 10
686.6904483697481
 20
65.48025300951707
 30
0.0
 10
687.2619103454664
 20
65.02075056276308
 30
0.0
 10
688.4029868741136
 20
64.38303963915271
 30
0.0
 10
690.3931619552823
 20
63.69057973166363
 30
0.0
 10
694.9540706130531
 20
62.64345002634704
 30
0.0
 10
701.1363883970755
 20
61.91889979759222
 30
0.0
 10
706.3021115294057
 20
61.54753124256487
 30
0.0
 10
708.5371845690397
 20
61.41625652537411
 30
0.0
  0
SPLINE
  5
B9
330
2B0
100
AcDbEntity
  8
0
100
AcDbSpline
210
0.0
220
0.0
230
1.0
 70
     8
 71
     3
 72
     9
 73
     5
 74
     0
 42
0.000000001
 43
0.001
 40
19.41434699116728
 40
19.41434699116728
 40
19.41434699116728
 40
19.41434699116728
 40
19.73222372121501
 40
22.32358980851818
 40
22.32358980851818
 40
22.32358980851818
 40
22.32358980851818
 10
767.0256943889974
 20
61.4162565481557
 30
0.0
 10
768.1496284193615
 20
61.45604312854763
 30
0.0
 10
777.8406082080614
 20
61.81086699098429
 30
0.0
 10
787.527403665426
 20
62.26940471616658
 30
0.0
 10
796.1557770321948
 20
62.67784058390157
 30
0.0
  0
SPLINE
  5
C3
330
2B0
100
AcDbEntity
  8
0
100
AcDbSpline
210
0.0
220
0.0
230
1.0
 70
     8
 71
     3
 72
    27
 73
    23
 74
     0
 42
0.000000001
 43
0.001
 40
0.0
 40
0.0
 40
0.0
 40
0.0
 40
4.01150847984872
 40
7.48337531960272
 40
10.41724566275918
 40
12.82891979019433
 40
14.71746701038865
 40
16.07638622642061
 40
16.56184976526441
 40
16.92290409037228
 40
17.05998354582269
 40
17.17136984159825
 40
17.26232968827579
 40
17.34223423814998
 40
17.42213451707105
 40
17.51298500519186
 40
17.62396582057856
 40
17.76015255592376
 40
18.11735198638434
 40
18.59521919393242
 40
19.92488846662558
 40
21.1012951513503
 40
21.1012951513503
 40
21.1012951513503
 40
21.1012951513503
 10
869.6243900610453
 20
109.6685923365793
 30
0.0
 10
856.4749118719211
 20
112.1045818857745
 30
0.0
 10
831.944867615046
 20
116.6488634583665
 30
0.0
 10
797.5228339233405
 20
121.3302355259329
 30
0.0
 10
768.2651882710319
 20
124.1558325113101
 30
0.0
 10
744.1517611172674
 20
125.308802359502
 30
0.0
 10
725.2880412310999
 20
124.4028989049543
 30
0.0
 10
712.9379140988863
 20
122.5288646932332
 30
0.0
 10
705.875601914699
 20
120.4654237391806
 30
0.0
 10
702.8428221791958
 20
119.1681789165816
 30
0.0
 10
701.1439887493121
 20
118.0419458390527
 30
0.0
 10
700.3154637140639
 20
117.2605222698377
 30
0.0
 10
699.8094184977832
 20
116.4478890483869
 30
0.0
 10
699.6668809857857
 20
115.597905500088
 30
0.0
 10
699.9075500321103
 20
114.770948928423
 30
0.0
 10
700.5012770768806
 20
114.0227412330752
 30
0.0
 10
701.4065924123396
 20
113.3400394315458
 30
0.0
 10
703.1993934844623
 20
112.4079657849389
 30
0.0
 10
706.3027625159049
 20
111.4266592857382
 30
0.0
 10
713.3782201332376
 20
109.9953200433119
 30
0.0
 10
723.2994831333158
 20
109.0415856490644
 30
0.0
 10
731.6401228849036
 20
108.5766037156969
 30
0.0
 10
735.4573545642653
 20
108.4028587049507
 30
0.0
  0
SPLINE
  5
C4
330
2B0
100
AcDbEntity
  8
0
100
AcDbSpline
210
0.0
220
0.0
230
1.0
 70
     8
 71
     3
 72
     8
 73
     4
 74
     0
 42
0.000000001
 43
0.001
 40
30.56613320810181
 40
30.56613320810181
 40
30.56613320810181
 40
30.56613320810181
 40
34.51226165572599
 40
34.51226165572599
 40
34.51226165572599
 40
34.51226165572599
 10
830.0853415281522
 20
108.4028584131827
 30
0.0
 10
843.3318798697109
 20
108.7732312038914
 30
0.0
 10
856.4781349653986
 20
109.2209117695857
 30
0.0
 10
869.6243900610453
 20
109.6685923365793
 30
0.0
  0
SPLINE
  5
BC
330
2B0
100
AcDbEntity
  8
0
100
AcDbSpline
210
0.0
220
0.0
230
1.0
 70
     8
 71
     3
 72
    28
 73
    24
 74
     0
 42
0.000000001
 43
0.001
 40
0.0
 40
0.0
 40
0.0
 40
0.0
 40
5.431515033683779
 40
10.13289475194103
 40
14.10620114872625
 40
17.37853317349435
 40
19.94629526183554
 40
21.7941710063597
 40
22.45414451811971
 40
22.94468220108761
 40
23.13076192865342
 40
23.28182695498
 40
23.40503877986327
 40
23.51316131645996
 40
23.62127511633404
 40
23.74429227905291
 40
23.89462780068228
 40
24.07910564510732
 40
24.56272783236151
 40
25.20906128089547
 40
27.00433779274184
 40
29.4808688965423
 40
30.47003755869492
 40
30.47003755869492
 40
30.47003755869492
 40
30.47003755869492
 10
642.5375325209577
 20
96.79426697564931
 30
0.0
 10
660.2973705127533
 20
93.26227369572383
 30
0.0
 10
693.429667499554
 20
86.67307787508457
 30
0.0
 10
740.0
 20
80.0
 30
0.0
 10
779.6288601113155
 20
76.04456541321585
 30
0.0
 10
812.3472071058166
 20
74.46059623081702
 30
0.0
 10
837.9672140840925
 20
76.00255165178707
 30
0.0
 10
854.7090515545733
 20
78.8965853255194
 30
0.0
 10
864.2379118339531
 20
81.94187487063746
 30
0.0
 10
868.3106356056339
 20
83.81484740084508
 30
0.0
 10
870.5743608374638
 20
85.4074800944651
 30
0.0
 10
871.6678894795533
 20
86.49846802423801
 30
0.0
 10
872.3218084806526
 20
87.61869757552701
 30
0.0
 10
872.4801986825673
 20
88.77482752116144
 30
0.0
 10
872.1190438274255
 20
89.88335483067024
 30
0.0
 10
871.283091306852
 20
90.87010180291834
 30
0.0
 10
870.0285165587647
 20
91.75575851261219
 30
0.0
 10
867.5635129512438
 20
92.94343745837499
 30
0.0
 10
863.3278164161211
 20
94.15017484849632
 30
0.0
 10
853.7200449996811
 20
95.8337874274399
 30
0.0
 10
837.3428691606449
 20
97.06451567943307
 30
0.0
 10
819.8218227981547
 20
97.64211581334993
 30
0.0
 10
808.2747161962768
 20
97.97908733863156
 30
0.0
 10
805.1371907328672
 20
98.06414069784365
 30
0.0
  0
SPLINE
  5
BD
330
2B0
100
AcDbEntity
  8
0
100
AcDbSpline
210
0.0
220
0.0
230
1.0
 70
     8
 71
     3
 72
     9
 73
     5
 74
     0
 42
0.000000001
 43
0.001
 40
40.14910237417809
 40
40.14910237417809
 40
40.14910237417809
 40
40.14910237417809
 40
41.29582182304246
 40
46.71608325588655
 40
46.71608325588655
 40
46.71608325588655
 40
46.71608325588655
 10
708.3547524323117
 20
98.06414075160545
 30
0.0
 10
704.3731461356216
 20
97.99927215372996
 30
0.0
 10
682.4865393344544
 20
97.62430300351107
 30
0.0
 10
660.6012418570551
 20
97.16958367991735
 30
0.0
 10
642.5375325209577
 20
96.79426697564931
 30
0.0
  0
CIRCLE
  5
97
330
2B0
100
AcDbEntity
  8
0
100
AcDbCircle
 10
65.27362683246778
 20
153.7771404711673
 30
0.0
 40
5.0
  0
CIRCLE
  5
98
330
2B0
100
AcDbEntity
  8
0
100
AcDbCircle
 10
575.2736268324678
 20
153.7771404711673
 30
0.0
 40
5.0
  0
CIRCLE
  5
A7
330
2B0
100
AcDbEntity
  8
0
100
AcDbCircle
 10
37.62211403291724
 20
56.05908219011701
 30
0.0
 40
5.0
  0
CIRCLE
  5
A8
330
2B0
100
AcDbEntity
  8
0
100
AcDbCircle
 10
547.6221140329172
 20
56.05908219011646
 30
0.0
 40
5.0
  0
CIRCLE
  5
AA
330
2B0
100
AcDbEntity
  8
0
100
AcDbCircle
 10
341.5584533853318
 20
153.8320702505547
 30
0.0
 40
5.0
  0
CIRCLE
  5
AB
330
2B0
100
AcDbEntity
  8
0
100
AcDbCircle
 10
313.9069405857812
 20
56.11401196950422
 30
0.0
 40
5.0
  0
LINE
  5
BF
330
2B0
100
AcDbEntity
  8
0
100
AcDbLine
 10
734.8039433802867
 20
61.41625658390146
 30
0.0
 11
734.8039433802867
 21
66.1536665778228
 31
0.0
  0
LINE
  5
C0
330
2B0
100
AcDbEntity
  8
0
100
AcDbLine
 10
762.2728514396264
 20
98.06414069784365
 30
0.0
 11
762.2728514396264
 21
92.92741643739879
 31
0.0
  0
LINE
  5
C5
330
2B0
100
AcDbEntity
  8
0
100
AcDbLine
 10
776.3969444147077
 20
108.4028583365792
 30
0.0
 11
776.3969444147077
 21
113.0326371123061
 31
0.0
  0
LINE
  5
C6
330
2B0
100
AcDbEntity
  8
0
100
AcDbLine
 10
270.0
 20
180.0
 30
0.0
 11
314.1330207729266
 21
136.9107239191541
 31
0.0
  0
LINE
  5
C7
330
2B0
100
AcDbEntity
  8
0
100
AcDbLine
 10
323.5228081183063
 20
179.5986964475823
 30
0.0
 11
266.2869269109061
 21
131.1490250746515
 31
0.0
  0
LINE
  5
C8
330
2B0
100
AcDbEntity
  8
0
100
AcDbLine
 10
317.7490130842265
 20
76.92555866764073
 30
0.0
 11
270.0
 21
30.0
 31
0.0
  0
LINE
  5
C9
330
2B0
100
AcDbEntity
  8
0
100
AcDbLine
 10
274.3200330452781
 20
74.91728213404772
 30
0.0
 11
330.8028105525809
 21
24.45933422752387
 31
0.0
  0
LINE
  5
CA
330
2B0
100
AcDbEntity
  8
0
100
AcDbLine
 10
572.4443666626103
 20
178.3541340084392
 30
0.0
 11
626.3122007667972
 21
136.3407099983775
 31
0.0
  0
LINE
  5
CB
330
2B0
100
AcDbEntity
  8
0
100
AcDbLine
 10
613.5861428716332
 20
169.1146673174298
 30
0.0
 11
570.3524119401175
 21
131.8081414329767
 31
0.0
  0
LINE
  5
CC
330
2B0
100
AcDbEntity
  8
0
100
AcDbLine
 10
570.0
 20
70.0
 30
0.0
 11
619.2065278927303
 21
44.39651067186014
 31
0.0
  0
LINE
  5
CD
330
2B0
100
AcDbEntity
  8
0
100
AcDbLine
 10
610.0
 20
70.0
 30
0.0
 11
580.0
 21
40.0
 31
0.0
  0
LWPOLYLINE
  5
20E
330
2B0
100
AcDbEntity
  8
0
  6
ACAD_ISO03W100
100
AcDbPolyline
 90
       13
 70
   128
 43
0.0
 10
40.86354683246816
 20
127.6604067440929
 10
40.86354683246816
 20
134.3226804711673
 10
40.86354683246816
 20
143.7057004711675
 10
40.86354683246816
 20
153.7771404711673
 10
40.86354683246816
 20
163.8485804711674
 10
40.86354683246816
 20
173.2316004711674
 10
40.86354683246816
 20
179.8938741982417
 10
40.86354683246816
 20
173.2316004711674
 10
40.86354683246816
 20
163.8485804711674
 10
40.86354683246816
 20
153.7771404711673
 10
40.86354683246816
 20
143.7057004711675
 10
40.86354683246816
 20
134.3226804711673
 10
40.86354683246816
 20
127.6604067440929
  0
SPLINE
  5
202
330
2B0
100
AcDbEntity
  8
0
  6
ACAD_ISO03W100
100
AcDbSpline
210
0.0
220
0.0
230
1.0
 70
     8
 71
     3
 72
    21
 73
    17
 74
     0
 42
0.000000001
 43
0.001
 40
106.7929245256497
 40
106.7929245256497
 40
106.7929245256497
 40
106.7929245256497
 40
113.0240696828645
 40
116.4607956775363
 40
119.0642392247162
 40
120.0818450265805
 40
120.9372569728305
 40
121.6700679210203
 40
122.3422801187574
 40
123.0144923164941
 40
123.7473032646839
 40
124.602715210934
 40
125.6203210127983
 40
128.2237645599781
 40
131.6604905546499
 40
139.8335187327062
 40
139.8335187327062
 40
139.8335187327062
 40
139.8335187327062
 10
737.888095102726
 20
159.6584454558889
 30
0.0
 10
735.830013931387
 20
159.3601150415217
 30
0.0
 10
732.6572578006795
 20
158.7701468467505
 30
0.0
 10
728.7322568729389
 20
157.6035221770653
 30
0.0
 10
726.5709924763586
 20
156.6314823480371
 30
0.0
 10
725.3514696224854
 20
155.7622918262475
 30
0.0
 10
724.7406551858141
 20
155.1359496477774
 30
0.0
 10
724.3602460836732
 20
154.4726655389143
 30
0.0
 10
724.2321851408608
 20
153.7771404711675
 30
0.0
 10
724.3602460836732
 20
153.0816154034206
 30
0.0
 10
724.7406551858143
 20
152.4183312945576
 30
0.0
 10
725.3514696224854
 20
151.7919891160875
 30
0.0
 10
726.5709924763585
 20
150.9227985942977
 30
0.0
 10
728.732256872939
 20
149.9507587652697
 30
0.0
 10
733.2783723955929
 20
148.5995207356216
 30
0.0
 10
737.1078164279267
 20
147.9704439149994
 30
0.0
 10
739.7621455053112
 20
147.6456406702528
 30
0.0
  0
SPLINE
  5
1FE
330
2B0
100
AcDbEntity
  8
0
  6
ACAD_ISO03W100
100
AcDbSpline
210
0.0
220
0.0
230
1.0
 70
     8
 71
     3
 72
    21
 73
    17
 74
     0
 42
0.000000001
 43
0.001
 40
145.2579809566143
 40
145.2579809566143
 40
145.2579809566143
 40
145.2579809566143
 40
150.3937483319152
 40
154.8865333452428
 40
158.210741005959
 40
159.459300247675
 40
160.4586792899904
 40
161.2543848077382
 40
161.9344908332118
 40
162.6145968586853
 40
163.410302376433
 40
164.4096814187485
 40
165.6582406604646
 40
168.9824483211807
 40
173.4752333345083
 40
182.0753019140644
 40
182.0753019140644
 40
182.0753019140644
 40
182.0753019140644
 10
664.3420261969351
 20
159.2857687458442
 30
0.0
 10
662.645046553739
 20
159.0568604407557
 30
0.0
 10
659.4751668457425
 20
158.5514181324284
 30
0.0
 10
655.2588506862148
 20
157.6124826543947
 30
0.0
 10
652.3786749519365
 20
156.6502911638419
 30
0.0
 10
650.733802700395
 20
155.7762776436818
 30
0.0
 10
649.9214921189038
 20
155.1586990817342
 30
0.0
 10
649.4009958581827
 20
154.4992483181749
 30
0.0
 10
649.2149306787152
 20
153.7771404711677
 30
0.0
 10
649.4009958581828
 20
153.0550326241606
 30
0.0
 10
649.9214921189038
 20
152.3955818606014
 30
0.0
 10
650.7338027003949
 20
151.7780032986536
 30
0.0
 10
652.3786749519367
 20
150.9039897784933
 30
0.0
 10
655.2588506862148
 20
149.9417982879407
 30
0.0
 10
660.6028484435899
 20
148.7517383163724
 30
0.0
 10
664.9306718023486
 20
148.1586323106362
 30
0.0
 10
667.6922670297313
 20
147.8661593965375
 30
0.0
  0
LINE
  5
225
330
2B0
100
AcDbEntity
  8
0
  6
ACAD_ISO03W100
100
AcDbLine
 10
238.882335811009
 20
6.804172954352406
 30
0.0
 11
335.6647741115651
 21
6.804172954352406
 31
0.0
  0
LINE
  5
262
330
2B0
100
AcDbEntity
  8
0
100
AcDbLine
 10
445.2736268324678
 20
123.7771404711673
 30
0.0
 11
165.2736268324678
 21
123.7771404711673
 31
0.0
  0
LINE
  5
1B7
330
2B0
100
AcDbEntity
  8
0
100
AcDbLine
 10
425.2736268324678
 20
185.7771404711673
 30
0.0
 11
205.2736268324678
 21
185.7771404711673
 31
0.0
  0
SPLINE
  5
1B8
330
2B0
100
AcDbEntity
  8
0
100
AcDbSpline
210
0.0
220
0.0
230
1.0
 70
  1064
 71
     3
 72
    13
 73
     9
 74
     7
 42
0.000000001
 43
0.0000000001
 44
0.0
 40
0.0
 40
0.0
 40
0.0
 40
0.0
 40
0.9999999999999432
 40
34.86984934245854
 40
76.44402882551356
 40
148.3178529459453
 40
193.4508022226323
 40
194.4508022226322
 40
194.4508022226322
 40
194.4508022226322
 40
194.4508022226322
 10
165.2736268324678
 20
123.7771404711673
 30
0.0
 10
164.9399544519246
 20
123.7768550127451
 30
0.0
 10
153.3048488126443
 20
123.7669011205711
 30
0.0
 10
130.5088720910749
 20
126.0278263895531
 30
0.0
 10
66.49463600387962
 20
156.4577580854601
 30
0.0
 10
157.1513946563115
 20
184.2761757024406
 30
0.0
 10
189.5424564789409
 20
185.781516391331
 30
0.0
 10
204.9398651944854
 20
185.7772333132285
 30
0.0
 10
205.2736268324678
 20
185.7771404711673
 30
0.0
 11
165.2736268324678
 21
123.7771404711673
 31
0.0
 11
164.2736268324678
 21
123.7771404711673
 31
0.0
 11
130.7334214481601
 21
128.4910896922873
 31
0.0
 11
94.99062216532494
 21
149.7246645000353
 31
0.0
 11
159.3175426015338
 21
181.7854489709183
 31
0.0
 11
204.2736268324678
 21
185.7771404711673
 31
0.0
 11
205.2736268324678
 21
185.7771404711673
 31
0.0
  0
SPLINE
  5
27E
330
2B0
100
AcDbEntity
  8
0
100
AcDbSpline
210
0.0
220
0.0
230
1.0
 70
  1064
 71
     3
 72
    13
 73
     9
 74
     7
 42
0.000000001
 43
0.0000000001
 44
0.0
 40
0.0
 40
0.0
 40
0.0
 40
0.0
 40
0.9999999999999432
 40
79.65432509999219
 40
144.8782999420052
 40
240.4631690957537
 40
268.3171861177538
 40
269.3171861177537
 40
269.3171861177537
 40
269.3171861177537
 40
269.3171861177537
 10
425.2736268324678
 20
185.7771404711673
 30
0.0
 10
425.6072336693881
 20
185.7772251551113
 30
0.0
 10
452.1804611130215
 20
185.7839705975184
 30
0.0
 10
491.0440079928977
 20
182.8644347786431
 30
0.0
 10
610.0520196241447
 20
149.1678588989497
 30
0.0
 10
492.0809292723065
 20
125.022956587303
 30
0.0
 10
455.2379666763754
 20
123.7736374815054
 30
0.0
 10
445.6073956461107
 20
123.7770231338703
 30
0.0
 10
445.2736268324678
 20
123.7771404711673
 30
0.0
 11
425.2736268324678
 21
185.7771404711673
 31
0.0
 11
426.2736268324678
 21
185.7771404711673
 31
0.0
 11
504.4816105681737
 21
177.4096954052692
 31
0.0
 11
565.2736268324678
 21
153.7771404711673
 31
0.0
 11
474.0969576983862
 21
125.0842455884016
 31
0.0
 11
446.2736268324678
 21
123.7771404711674
 31
0.0
 11
445.2736268324678
 21
123.7771404711673
 31
0.0
  0
SPLINE
  5
226
330
2B0
100
AcDbEntity
  8
0
  6
ACAD_ISO03W100
100
AcDbSpline
210
0.0
220
0.0
230
1.0
 70
     8
 71
     3
 72
    28
 73
    24
 74
     0
 42
0.000000001
 43
0.001
 40
0.0
 40
0.0
 40
0.0
 40
0.0
 40
5.431515033683779
 40
10.13289475194103
 40
14.10620114872625
 40
17.37853317349435
 40
19.94629526183554
 40
21.7941710063597
 40
22.45414451811971
 40
22.94468220108761
 40
23.13076192865342
 40
23.28182695498
 40
23.40503877986327
 40
23.51316131645996
 40
23.62127511633404
 40
23.74429227905291
 40
23.89462780068228
 40
24.07910564510732
 40
24.56272783236151
 40
25.20906128089547
 40
27.00433779274184
 40
29.4808688965423
 40
30.47003755869492
 40
30.47003755869492
 40
30.47003755869492
 40
30.47003755869492
 10
401.481994022919
 20
8.074046954352308
 30
0.0
 10
383.7221560311232
 20
11.60604023427829
 30
0.0
 10
350.5898590443231
 20
18.19523605491731
 30
0.0
 10
304.0195265438771
 20
24.86831393000251
 30
0.0
 10
264.3906664325613
 20
28.82374851678641
 30
0.0
 10
231.6723194380603
 20
30.40771769918429
 30
0.0
 10
206.0523124597841
 20
28.86576227821429
 30
0.0
 10
189.3104749893032
 20
25.97172860448246
 30
0.0
 10
179.781614709924
 20
22.92643905936451
 30
0.0
 10
175.7088909382432
 20
21.05346652915649
 30
0.0
 10
173.4451657064133
 20
19.46083383553748
 30
0.0
 10
172.3516370643233
 20
18.36984590576442
 30
0.0
 10
171.6977180632241
 20
17.24961635447449
 30
0.0
 10
171.5393278613092
 20
16.09348640884043
 30
0.0
 10
171.9004827164511
 20
14.98495909933133
 30
0.0
 10
172.7364352370253
 20
13.99821212708339
 30
0.0
 10
173.9910099851121
 20
13.11255541738951
 30
0.0
 10
176.4560135926331
 20
11.92487647162643
 30
0.0
 10
180.6917101277562
 20
10.71813908150552
 30
0.0
 10
190.2994815441963
 20
9.034526502562482
 30
0.0
 10
206.6766573832322
 20
7.803798250568331
 30
0.0
 10
224.1977037457221
 20
7.226198116651471
 30
0.0
 10
235.7448103476002
 20
6.889226591370413
 30
0.0
 10
238.882335811009
 20
6.804173232158416
 30
0.0
  0
SPLINE
  5
227
330
2B0
100
AcDbEntity
  8
0
  6
ACAD_ISO03W100
100
AcDbSpline
210
0.0
220
0.0
230
1.0
 70
     8
 71
     3
 72
     9
 73
     5
 74
     0
 42
0.000000001
 43
0.001
 40
40.14910237417809
 40
40.14910237417809
 40
40.14910237417809
 40
40.14910237417809
 40
41.29582182304246
 40
46.71608325588655
 40
46.71608325588655
 40
46.71608325588655
 40
46.71608325588655
 10
335.6647741115651
 20
6.804173178396479
 30
0.0
 10
339.6463804082551
 20
6.869041776272478
 30
0.0
 10
361.5329872094221
 20
7.244010926491523
 30
0.0
 10
383.418284686821
 20
7.698730250084292
 30
0.0
 10
401.481994022919
 20
8.074046954352308
 30
0.0
  0
LINE
  5
20F
330
2B0
100
AcDbEntity
  8
0
  6
ACAD_ISO03W100
100
AcDbLine
 10
40.86354683246816
 20
128.6604067440927
 30
0.0
 11
36.86354683246805
 21
128.6604067440927
 31
0.0
  0
LINE
  5
210
330
2B0
100
AcDbEntity
  8
0
  6
ACAD_ISO03W100
100
AcDbLine
 10
40.86354683246805
 20
178.8938741982417
 30
0.0
 11
36.86354683246805
 21
178.8938741982417
 31
0.0
  0
LINE
  5
211
330
2B0
100
AcDbEntity
  8
0
  6
ACAD_ISO03W100
100
AcDbLine
 10
36.86354683246805
 20
128.6604067440927
 30
0.0
 11
36.86354683246805
 21
178.8938741982417
 31
0.0
  0
LINE
  5
1E9
330
2B0
100
AcDbEntity
  8
0
100
AcDbLine
 10
142.4989100829626
 20
193.841004539557
 30
0.0
 11
143.3487345775294
 21
188.9137539544503
 31
0.0
  0
LINE
  5
1F0
330
2B0
100
AcDbEntity
  8
0
100
AcDbLine
 10
483.8830633604268
 20
197.6949787765123
 30
0.0
 11
483.8174749453246
 21
192.6954089790393
 31
0.0
  0
LINE
  5
1EA
330
2B0
100
AcDbEntity
  8
0
100
AcDbLine
 10
143.3487345775294
 20
188.9137539544503
 30
0.0
 11
148.2736268324678
 21
189.7771404711672
 31
0.0
  0
LINE
  5
1EB
330
2B0
100
AcDbEntity
  8
0
100
AcDbLine
 10
160.7299750795695
 20
191.9608721280973
 30
0.0
 11
165.6548673345078
 21
192.8242586448143
 31
0.0
  0
LINE
  5
1F1
330
2B0
100
AcDbEntity
  8
0
100
AcDbLine
 10
483.8174749453246
 20
192.6954089790393
 30
0.0
 11
478.8181046670926
 21
192.7747614908447
 31
0.0
  0
LINE
  5
1F2
330
2B0
100
AcDbEntity
  8
0
100
AcDbLine
 10
463.6736967648698
 20
193.0151411266718
 30
0.0
 11
458.6743264866378
 21
193.0944936384772
 31
0.0
  0
LINE
  5
1EC
330
2B0
100
AcDbEntity
  8
0
100
AcDbLine
 10
165.6548673345078
 20
192.8242586448143
 30
0.0
 11
166.4399845984078
 21
187.8862842744954
 31
0.0
  0
LINE
  5
1EE
330
2B0
100
AcDbEntity
  8
0
100
AcDbLine
 10
167.1879519939453
 20
183.1819630236149
 30
0.0
 11
167.187953758939
 21
183.1819519227332
 31
0.0
  0
LINE
  5
1F3
330
2B0
100
AcDbEntity
  8
0
100
AcDbLine
 10
458.6743264866378
 20
193.0944936384772
 30
0.0
 11
458.6743264866378
 21
188.0944936384772
 31
0.0
  0
LINE
  5
1BA
330
2B0
100
AcDbEntity
  8
0
100
AcDbLine
 10
205.2736268324678
 20
185.7771404711673
 30
0.0
 11
204.9875905893449
 21
173.6118340961429
 31
0.0
  0
LINE
  5
207
330
2B0
100
AcDbEntity
  8
0
100
AcDbLine
 10
285.2736268324676
 20
113.7771404711674
 30
0.0
 11
293.2736268324676
 21
113.7771404711674
 31
0.0
  0
LINE
  5
22D
330
2B0
100
AcDbEntity
  8
0
100
AcDbLine
 10
257.6221140329171
 20
16.05908219011715
 30
0.0
 11
265.622114032917
 21
16.05908219011715
 31
0.0
  0
LINE
  5
1BB
330
2B0
100
AcDbEntity
  8
0
100
AcDbLine
 10
204.9875905893449
 20
173.6118340961429
 30
0.0
 11
189.4554828883039
 21
185.4775153468796
 31
0.0
  0
LINE
  5
208
330
2B0
100
AcDbEntity
  8
0
100
AcDbLine
 10
289.2736268324676
 20
117.7771404711673
 30
0.0
 11
289.2736268324676
 21
109.7771404711674
 31
0.0
  0
LINE
  5
22E
330
2B0
100
AcDbEntity
  8
0
100
AcDbLine
 10
261.622114032917
 20
20.05908219011707
 30
0.0
 11
261.622114032917
 21
12.0590821901171
 31
0.0
  0
LINE
  5
1D2
330
2B0
100
AcDbEntity
  8
0
100
AcDbLine
 10
104.0107698463266
 20
163.4828948840928
 30
0.0
 11
121.5382257385978
 21
151.2823299508315
 31
0.0
  0
LINE
  5
209
330
2B0
100
AcDbEntity
  8
0
100
AcDbLine
 10
289.2736268324676
 20
109.7771404711674
 30
0.0
 11
285.2736268324676
 21
113.7771404711674
 31
0.0
  0
LINE
  5
22F
330
2B0
100
AcDbEntity
  8
0
100
AcDbLine
 10
261.622114032917
 20
12.0590821901171
 30
0.0
 11
257.6221140329171
 21
16.05908219011715
 31
0.0
  0
LINE
  5
1D1
330
2B0
100
AcDbEntity
  8
0
100
AcDbLine
 10
121.5382257385978
 20
151.2823299508315
 30
0.0
 11
97.17785922203188
 21
146.076138420358
 31
0.0
  0
LINE
  5
20A
330
2B0
100
AcDbEntity
  8
0
100
AcDbLine
 10
285.2736268324676
 20
113.7771404711674
 30
0.0
 11
289.2736268324676
 21
117.7771404711673
 31
0.0
  0
LINE
  5
230
330
2B0
100
AcDbEntity
  8
0
100
AcDbLine
 10
257.6221140329171
 20
16.05908219011715
 30
0.0
 11
261.622114032917
 21
20.05908219011707
 31
0.0
  0
LINE
  5
1C0
330
2B0
100
AcDbEntity
  8
0
100
AcDbLine
 10
138.7271732906119
 20
176.9912812187962
 30
0.0
 11
151.1906621407947
 21
166.543114655681
 31
0.0
  0
LINE
  5
20B
330
2B0
100
AcDbEntity
  8
0
100
AcDbLine
 10
289.2736268324676
 20
117.7771404711673
 30
0.0
 11
293.2736268324676
 21
113.7771404711674
 31
0.0
  0
LINE
  5
231
330
2B0
100
AcDbEntity
  8
0
100
AcDbLine
 10
261.622114032917
 20
20.05908219011707
 30
0.0
 11
265.622114032917
 21
16.05908219011715
 31
0.0
  0
LINE
  5
1C1
330
2B0
100
AcDbEntity
  8
0
100
AcDbLine
 10
151.1906621407947
 20
166.543114655681
 30
0.0
 11
153.888098305562
 21
180.67530975447
 31
0.0
  0
LINE
  5
20C
330
2B0
100
AcDbEntity
  8
0
100
AcDbLine
 10
293.2736268324676
 20
113.7771404711674
 30
0.0
 11
289.2736268324674
 21
109.7771404711674
 31
0.0
  0
LINE
  5
232
330
2B0
100
AcDbEntity
  8
0
100
AcDbLine
 10
265.622114032917
 20
16.05908219011715
 30
0.0
 11
261.6221140329169
 21
12.0590821901171
 31
0.0
  0
LINE
  5
1CE
330
2B0
100
AcDbEntity
  8
0
100
AcDbLine
 10
117.7732242251056
 20
133.1865726379385
 30
0.0
 11
127.7684201208294
 21
138.4434496145599
 31
0.0
  0
LINE
  5
1CF
330
2B0
100
AcDbEntity
  8
0
100
AcDbLine
 10
127.7684201208294
 20
138.4434496145599
 30
0.0
 11
130.0
 21
128.7160561162642
 31
0.0
  0
LINE
  5
1C4
330
2B0
100
AcDbEntity
  8
0
100
AcDbLine
 10
165.2736268324678
 20
123.7771404711673
 30
0.0
 11
165.2754262939911
 21
139.0606480152978
 31
0.0
  0
LINE
  5
1D0
330
2B0
100
AcDbEntity
  8
0
100
AcDbLine
 10
165.2754262939911
 20
139.0606480152978
 30
0.0
 11
153.3509096146151
 21
124.1812586742918
 31
0.0
  0
ARC
  5
1C8
330
2B0
100
AcDbEntity
  8
0
100
AcDbCircle
 10
143.3487345775295
 20
188.9137539544503
 30
0.0
 40
5.0
100
AcDbArc
 50
9.943519762135699
 51
99.78577821236928
  0
ARC
  5
1C9
330
2B0
100
AcDbEntity
  8
0
100
AcDbCircle
 10
165.6548673345078
 20
192.8242586448143
 30
0.0
 40
5.0
100
AcDbArc
 50
189.9435197621355
 51
279.0341687818975
  0
ARC
  5
1CD
330
2B0
100
AcDbEntity
  8
0
100
AcDbCircle
 10
483.8174749453246
 20
192.6954089790393
 30
0.0
 40
5.0
100
AcDbArc
 50
89.24839056952982
 51
179.0906490197639
  0
CIRCLE
  5
21A
330
2B0
100
AcDbEntity
  8
0
100
AcDbCircle
 10
324.5464768324676
 20
118.8372604711673
 30
0.0
 40
5.0
  0
CIRCLE
  5
21B
330
2B0
100
AcDbEntity
  8
0
100
AcDbCircle
 10
296.8949640329171
 20
21.11920219011699
 30
0.0
 40
5.0
  0
CIRCLE
  5
23F
330
2B0
100
AcDbEntity
  8
0
100
AcDbCircle
 10
747.1245625109598
 20
83.7491117398846
 30
0.0
 40
5.0
  0
ARC
  5
1CC
330
2B0
100
AcDbEntity
  8
0
100
AcDbCircle
 10
458.6743264866378
 20
193.0944936384772
 30
0.0
 40
5.0
100
AcDbArc
 50
270.0000000000007
 51
359.0906490197639
  0
LINE
  5
1D3
330
2B0
100
AcDbEntity
  8
0
100
AcDbLine
 10
425.2736268324678
 20
185.7771404711673
 30
0.0
 11
425.0737442364954
 21
171.5873043828621
 31
0.0
  0
LINE
  5
1E0
330
2B0
100
AcDbEntity
  8
0
100
AcDbLine
 10
425.0737442364954
 20
171.5873043828621
 30
0.0
 11
436.4898946244342
 21
185.670012433902
 31
0.0
  0
LINE
  5
242
330
2B0
100
AcDbEntity
  8
0
100
AcDbLine
 10
557.07013029477
 20
161.0542821416179
 30
0.0
 11
546.9263622795858
 21
153.9431870381898
 31
0.0
  0
LINE
  5
247
330
2B0
100
AcDbEntity
  8
0
100
AcDbLine
 10
546.9263622795858
 20
153.9431870381898
 30
0.0
 11
558.2422530548048
 21
144.6240389001364
 31
0.0
  0
LINE
  5
25D
330
2B0
100
AcDbEntity
  8
0
100
AcDbLine
 10
503.133424367534
 20
129.1004096539029
 30
0.0
 11
506.0
 21
142.0
 31
0.0
  0
LINE
  5
25E
330
2B0
100
AcDbEntity
  8
0
100
AcDbLine
 10
506.0
 20
142.0
 30
0.0
 11
516.384723137645
 21
131.615276862355
 31
0.0
  0
LINE
  5
1E1
330
2B0
100
AcDbEntity
  8
0
100
AcDbLine
 10
494.702429909596
 20
179.3622637866494
 30
0.0
 11
499.6318558201524
 21
162.5516574762902
 31
0.0
  0
LINE
  5
241
330
2B0
100
AcDbEntity
  8
0
100
AcDbLine
 10
499.6318558201524
 20
162.5516574762902
 30
0.0
 11
511.1274118235751
 21
175.9080487001914
 31
0.0
  0
LINE
  5
1F8
330
2B0
100
AcDbEntity
  8
0
100
AcDbLine
 10
649.2736268234678
 20
188.7771404711677
 30
0.0
 11
649.2736268234678
 21
148.7771404711677
 31
0.0
  0
LINE
  5
1F9
330
2B0
100
AcDbEntity
  8
0
100
AcDbLine
 10
724.2736268234678
 20
178.7771404711673
 30
0.0
 11
724.2736268234678
 21
148.7771404711673
 31
0.0
  0
LINE
  5
218
330
2B0
100
AcDbEntity
  8
0
100
AcDbLine
 10
171.6221040329172
 20
20.48773219011699
 30
0.0
 11
171.6221040329172
 21
3.281941718949724
 31
0.0
  0
LINE
  5
22B
330
2B0
100
AcDbEntity
  8
0
100
AcDbLine
 10
401.481994022919
 20
12.46084218993594
 30
0.0
 11
401.481994022919
 21
0.0
 31
0.0
  0
CIRCLE
  5
21C
330
2B0
100
AcDbEntity
  8
0
100
AcDbCircle
 10
850.0
 20
150.0
 30
0.0
 40
25.0
  0
CIRCLE
  5
21D
330
2B0
100
AcDbEntity
  8
0
100
AcDbCircle
 10
850.0
 20
150.0
 30
0.0
 40
5.0
  0
CIRCLE
  5
28F
330
2B0
100
AcDbEntity
  8
0
100
AcDbCircle
 10
849.9999999999999
 20
166.9999999999999
 30
0.0
 40
1.0
  0
CIRCLE
  5
290
330
2B0
100
AcDbEntity
  8
0
100
AcDbCircle
 10
833.0000000000001
 20
149.9999999999999
 30
0.0
 40
1.0
  0
CIRCLE
  5
291
330
2B0
100
AcDbEntity
  8
0
100
AcDbCircle
 10
850.0000000000001
 20
133.0000000000001
 30
0.0
 40
1.0
  0
CIRCLE
  5
292
330
2B0
100
AcDbEntity
  8
0
100
AcDbCircle
 10
866.9999999999999
 20
150.0000000000001
 30
0.0
 40
1.0
  0
LINE
  5
265
330
2B0
100
AcDbEntity
  8
0
  6
ACAD_ISO03W100
100
AcDbLine
 10
446.4472265480724
 20
150.6442760460181
 30
0.0
 11
809.0
 21
134.0
 31
0.0
  0
LINE
  5
25F
330
2B0
100
AcDbEntity
  8
0
100
AcDbLine
 10
445.2736268324678
 20
133.8932805255723
 30
0.0
 11
445.2736268324678
 21
123.7771404711673
 31
0.0
  0
LINE
  5
27F
330
2B0
100
AcDbEntity
  8
0
100
AcDbLine
 10
445.2736268324678
 20
133.8932805255723
 30
0.0
 11
457.2433335789395
 21
123.9509880768799
 31
0.0
  0
VIEWPORT
  5
376
330
2AC
100
AcDbEntity
 67
     1
  8
0
 62
   178
420
        0
100
AcDbViewport
 10
128.5
 20
97.5
 30
0.0
 40
314.226
 41
222.18
 68
     1
 69
     1
 12
128.5
 22
97.5
 13
0.0
 23
0.0
 14
10.0
 24
10.0
 15
10.0
 25
10.0
 16
0.0
 26
0.0
 36
1.0
 17
0.0
 27
0.0
 37
0.0
 42
50.0
 43
0.0
 44
0.0
 45
222.18
 50
0.0
 51
0.0
 72
   100
 90
   557152
  1

281
     0
 71
     1
 74
     0
110
0.0
120
0.0
130
0.0
111
1.0
121
0.0
131
0.0
112
0.0
122
1.0
132
0.0
 79
     0
146
0.0
170
     0
 61
     5
348
2C0
292
     1
282
     1
141
0.0
142
0.0
 63
   256
361
377
  0
ENDSEC
  0
SECTION
  2
OBJECTS
  0
DICTIONARY
  5
29E
330
0
100
AcDbDictionary
281
     1
  3
ACAD_DETAILVIEWSTYLE
350
387
  3
ACAD_GROUP
350
29F
  3
ACAD_LAYOUT
350
2AB
  3
ACAD_MATERIAL
350
2D4
  3
ACAD_MLEADERSTYLE
350
2FC
  3
ACAD_MLINESTYLE
350
2A8
  3
ACAD_PLOTSETTINGS
350
2AA
  3
ACAD_PLOTSTYLENAME
350
2A0
  3
ACAD_SCALELIST
350
2D8
  3
ACAD_SECTIONVIEWSTYLE
350
388
  3
ACAD_TABLESTYLE
350
2FA
  3
ACAD_VISUALSTYLE
350
2BB
  3
ACDB_RECOMPOSE_DATA
350
384
  3
AcDbVariableDictionary
350
380
  3
QCAD_OBJECTS
350
300
  0
SUN
  5
2FE
330
2BA
100
AcDbSun
 90
        1
290
     0
 63
     7
421
 16777215
 40
1.0
291
     1
 91
  2455826
 92
 54000000
292
     0
 70
     2
 71
   256
280
     1
  0
SUN
  5
377
330
376
100
AcDbSun
 90
        1
290
     0
 63
     7
421
 16777215
 40
1.0
291
     1
 91
  2455826
 92
 54000000
292
     0
 70
     2
 71
   256
280
     1
  0
DICTIONARY
  5
387
102
{ACAD_REACTORS
330
29E
102
}
330
29E
100
AcDbDictionary
281
     1
  0
DICTIONARY
  5
29F
102
{ACAD_REACTORS
330
29E
102
}
330
29E
100
AcDbDictionary
281
     1
  0
DICTIONARY
  5
2AB
102
{ACAD_REACTORS
330
29E
102
}
330
29E
100
AcDbDictionary
281
     1
  3
Layout1
350
2AF
  3
Model
350
2B3
  0
DICTIONARY
  5
2D4
102
{ACAD_REACTORS
330
29E
102
}
330
29E
100
AcDbDictionary
281
     1
  3
ByBlock
350
2D6
  3
ByLayer
350
2D5
  3
Global
350
2D7
  0
DICTIONARY
  5
2FC
102
{ACAD_REACTORS
330
29E
102
}
330
29E
100
AcDbDictionary
281
     1
  3
Standard
350
2FD
  0
DICTIONARY
  5
2A8
102
{ACAD_REACTORS
330
29E
102
}
330
29E
100
AcDbDictionary
281
     1
  3
Standard
350
2A9
  0
DICTIONARY
  5
2AA
102
{ACAD_REACTORS
330
29E
102
}
330
29E
100
AcDbDictionary
281
     1
  0
ACDBDICTIONARYWDFLT
  5
2A0
102
{ACAD_REACTORS
330
29E
102
}
330
29E
100
AcDbDictionary
281
     1
  3
Normal
350
2A1
100
AcDbDictionaryWithDefault
340
2A1
  0
DICTIONARY
  5
2D8
102
{ACAD_REACTORS
330
29E
102
}
330
29E
100
AcDbDictionary
281
     1
  3
A0
350
2D9
  3
A1
350
2DA
  3
A2
350
2DB
  3
A3
350
2DC
  3
A4
350
2DD
  3
A5
350
2DE
  3
A6
350
2DF
  3
A7
350
2E0
  3
A8
350
2E1
  3
A9
350
2E2
  3
B0
350
2E3
  3
B1
350
2E4
  3
B2
350
2E5
  3
B3
350
2E6
  3
B4
350
2E7
  3
B5
350
2E8
  3
B6
350
2E9
  3
B7
350
2EA
  3
B8
350
2EB
  3
B9
350
2EC
  3
C0
350
2ED
  3
C1
350
2EE
  3
C2
350
2EF
  3
C3
350
2F0
  3
C4
350
2F1
  3
C5
350
2F2
  3
C6
350
2F3
  3
C7
350
2F4
  3
C8
350
2F5
  3
C9
350
2F6
  3
D0
350
2F7
  3
D1
350
2F8
  3
D2
350
2F9
  0
DICTIONARY
  5
388
102
{ACAD_REACTORS
330
29E
102
}
330
29E
100
AcDbDictionary
281
     1
  0
DICTIONARY
  5
2FA
102
{ACAD_REACTORS
330
29E
102
}
330
29E
100
AcDbDictionary
281
     1
  3
Standard
350
2FB
  0
DICTIONARY
  5
2BB
102
{ACAD_REACTORS
330
29E
102
}
330
29E
100
AcDbDictionary
281
     1
  3
2dWireframe
350
2C0
  3
Basic
350
2C3
  3
Brighten
350
2C7
  3
ColorChange
350
2CB
  3
Conceptual
350
2C5
  3
Dim
350
2C6
  3
EdgeColorOff
350
2CE
  3
Facepattern
350
2CA
  3
Flat
350
2BC
  3
FlatWithEdges
350
2BD
  3
Gouraud
350
2BE
  3
GouraudWithEdges
350
2BF
  3
Hidden
350
2C2
  3
JitterOff
350
2CC
  3
Linepattern
350
2C9
  3
OverhangOff
350
2CD
  3
Realistic
350
2C4
  3
Shaded
350
2D3
  3
Shaded with edges
350
2D2
  3
Shades of Gray
350
2CF
  3
Sketchy
350
2D0
  3
Thicken
350
2C8
  3
Wireframe
350
2C1
  3
X-Ray
350
2D1
  0
XRECORD
  5
384
102
{ACAD_REACTORS
330
29E
102
}
330
29E
100
AcDbXrecord
280
     1
 90
        1
330
2FB
  0
DICTIONARY
  5
380
102
{ACAD_REACTORS
330
29E
102
}
330
29E
100
AcDbDictionary
281
     1
  3
CANNOSCALE
350
381
  3
CMLEADERSTYLE
350
386
  3
CTABLESTYLE
350
385
  0
DICTIONARY
  5
300
102
{ACAD_REACTORS
330
29E
102
}
330
29E
100
AcDbDictionary
281
     1
  3
ColorSettings/BackgroundColor
350
302
  3
ColorSettings/ColorMode
350
303
  3
DimensionSettings/AngularFormat
350
304
  3
DimensionSettings/AngularPrecision
350
305
  3
DimensionSettings/DecimalPoint
350
306
  3
DimensionSettings/DimensionFont
350
307
  3
DimensionSettings/KeepProportions
350
308
  3
DimensionSettings/LinearFormat
350
309
  3
DimensionSettings/LinearPrecision
350
30A
  3
Grid/DisplayGrid00
350
30B
  3
Grid/DisplayGrid01
350
30C
  3
Grid/DisplayGrid02
350
30D
  3
Grid/DisplayGrid03
350
30E
  3
Grid/GridSpacingX00
350
30F
  3
Grid/GridSpacingX01
350
310
  3
Grid/GridSpacingX02
350
311
  3
Grid/GridSpacingX03
350
312
  3
Grid/GridSpacingY00
350
313
  3
Grid/GridSpacingY01
350
314
  3
Grid/GridSpacingY02
350
315
  3
Grid/GridSpacingY03
350
316
  3
Grid/IsometricGrid00
350
317
  3
Grid/IsometricGrid01
350
318
  3
Grid/IsometricGrid02
350
319
  3
Grid/IsometricGrid03
350
31A
  3
Grid/IsometricProjection00
350
31B
  3
Grid/IsometricProjection01
350
31C
  3
Grid/IsometricProjection02
350
31D
  3
Grid/IsometricProjection03
350
31E
  3
Grid/MetaGridSpacingX00
350
31F
  3
Grid/MetaGridSpacingX01
350
320
  3
Grid/MetaGridSpacingX02
350
321
  3
Grid/MetaGridSpacingX03
350
322
  3
Grid/MetaGridSpacingY00
350
323
  3
Grid/MetaGridSpacingY01
350
324
  3
Grid/MetaGridSpacingY02
350
325
  3
Grid/MetaGridSpacingY03
350
326
  3
MultiPageSettings/Columns
350
327
  3
MultiPageSettings/GlueMarginsBottom
350
328
  3
MultiPageSettings/GlueMarginsLeft
350
329
  3
MultiPageSettings/GlueMarginsRight
350
32A
  3
MultiPageSettings/GlueMarginsTop
350
32B
  3
MultiPageSettings/PrintCropMarks
350
32C
  3
MultiPageSettings/Rows
350
32D
  3
PageSettings/OffsetX
350
32E
  3
PageSettings/OffsetY
350
32F
  3
PageSettings/PageOrientation
350
330
  3
PageSettings/PaperHeight
350
331
  3
PageSettings/PaperWidth
350
332
  3
PageSettings/Scale
350
333
  3
PageSettings/ShowPaperBorders
350
334
  3
QCADVersion
350
335
  3
UnitSettings/PaperUnit
350
336
  3
ViewportCenter
350
337
  3
ViewportHeight
350
338
  3
ViewportWidth
350
339
  0
LAYOUT
  5
2AF
102
{ACAD_REACTORS
330
2AB
102
}
330
2AB
100
AcDbPlotSettings
  1

  2
none_device
  4
ISO_A4_(210.00_x_297.00_MM)
  6

 40
7.5
 41
20.0
 42
7.5
 43
20.0
 44
210.0
 45
297.0
 46
0.0
 47
0.0
 48
0.0
 49
0.0
140
0.0
141
0.0
142
1.0
143
1.0
 70
   688
 72
     1
 73
     1
 74
     5
  7

 75
     0
 76
     0
 77
     2
 78
   300
147
1.0
148
0.0
149
0.0
100
AcDbLayout
  1
Layout1
 70
     1
 71
     0
 10
-20.0
 20
-7.5
 11
277.0
 21
202.5
 12
0.0
 22
0.0
 32
0.0
 14
0.0
 24
0.0
 34
0.0
 15
0.0
 25
0.0
 35
0.0
146
0.0
 13
0.0
 23
0.0
 33
0.0
 16
1.0
 26
0.0
 36
0.0
 17
0.0
 27
1.0
 37
0.0
 76
     0
330
2AC
331
376
  0
LAYOUT
  5
2B3
102
{ACAD_REACTORS
330
2AB
102
}
330
2AB
100
AcDbPlotSettings
  1

  2
none_device
  4
Letter_(8.50_x_11.00_Inches)
  6

 40
6.35
 41
6.35
 42
6.35000508
 43
6.35000508
 44
215.9
 45
279.4
 46
0.0
 47
0.0
 48
0.0
 49
0.0
140
0.0
141
0.0
142
1.0
143
1.0
 70
  1712
 72
     0
 73
     0
 74
     0
  7

 75
     0
 76
     0
 77
     2
 78
   300
147
1.0
148
0.0
149
0.0
100
AcDbLayout
  1
Model
 70
     1
 71
     0
 10
0.0
 20
0.0
 11
12.0
 21
9.0
 12
0.0
 22
0.0
 32
0.0
 14
9.2736268324677
 24
0.0
 34
0.0
 15
875.0
 25
203.8307034973146
 35
0.0
146
0.0
 13
0.0
 23
0.0
 33
0.0
 16
1.0
 26
0.0
 36
0.0
 17
0.0
 27
1.0
 37
0.0
 76
     0
330
2B0
331
2BA
  0
MATERIAL
  5
2D6
102
{ACAD_REACTORS
330
2D4
102
}
330
2D4
100
AcDbMaterial
  1
ByBlock
 72
     1
 94
      127
  0
MATERIAL
  5
2D5
102
{ACAD_REACTORS
330
2D4
102
}
330
2D4
100
AcDbMaterial
  1
ByLayer
 72
     1
 94
      127
  0
MATERIAL
  5
2D7
102
{ACAD_REACTORS
330
2D4
102
}
330
2D4
100
AcDbMaterial
  1
Global
 72
     1
 94
      127
  0
MLEADERSTYLE
  5
2FD
102
{ACAD_REACTORS
330
2FC
102
}
330
2FC
100
AcDbMLeaderStyle
179
     2
170
     2
171
     1
172
     0
 90
        2
 40
0.0
 41
0.0
173
     1
 91
-1056964608
340
2A5
 92
       -2
290
     1
 42
0.09
291
     1
 43
0.36
  3
Standard
341
0
 44
0.18
300

342
2A3
174
     1
178
     6
175
     1
176
     0
 93
-1056964608
 45
0.18
292
     0
297
     0
 46
0.18
343
0
 94
-1056964608
 47
1.0
 49
1.0
140
1.0
293
     1
141
0.0
294
     1
177
     0
142
1.0
295
     0
296
     0
143
0.125
271
     0
272
     9
273
     9
298
     0
  0
MLINESTYLE
  5
2A9
102
{ACAD_REACTORS
330
2A8
102
}
330
2A8
100
AcDbMlineStyle
  2
Standard
 70
     0
  3

 62
   256
 51
90.0
 52
90.0
 71
     2
 49
0.5
 62
   256
  6
BYLAYER
 49
-0.5
 62
   256
  6
BYLAYER
  0
ACDBPLACEHOLDER
  5
2A1
102
{ACAD_REACTORS
330
2A0
102
}
330
2A0
  0
SCALE
  5
2D9
102
{ACAD_REACTORS
330
2D8
102
}
330
2D8
100
AcDbScale
 70
     0
300
1:1
140
1.0
141
1.0
290
     1
  0
SCALE
  5
2DA
102
{ACAD_REACTORS
330
2D8
102
}
330
2D8
100
AcDbScale
 70
     0
300
1:2
140
1.0
141
2.0
290
     0
  0
SCALE
  5
2DB
102
{ACAD_REACTORS
330
2D8
102
}
330
2D8
100
AcDbScale
 70
     0
300
1:4
140
1.0
141
4.0
290
     0
  0
SCALE
  5
2DC
102
{ACAD_REACTORS
330
2D8
102
}
330
2D8
100
AcDbScale
 70
     0
300
1:5
140
1.0
141
5.0
290
     0
  0
SCALE
  5
2DD
102
{ACAD_REACTORS
330
2D8
102
}
330
2D8
100
AcDbScale
 70
     0
300
1:8
140
1.0
141
8.0
290
     0
  0
SCALE
  5
2DE
102
{ACAD_REACTORS
330
2D8
102
}
330
2D8
100
AcDbScale
 70
     0
300
1:10
140
1.0
141
10.0
290
     0
  0
SCALE
  5
2DF
102
{ACAD_REACTORS
330
2D8
102
}
330
2D8
100
AcDbScale
 70
     0
300
1:16
140
1.0
141
16.0
290
     0
  0
SCALE
  5
2E0
102
{ACAD_REACTORS
330
2D8
102
}
330
2D8
100
AcDbScale
 70
     0
300
1:20
140
1.0
141
20.0
290
     0
  0
SCALE
  5
2E1
102
{ACAD_REACTORS
330
2D8
102
}
330
2D8
100
AcDbScale
 70
     0
300
1:30
140
1.0
141
30.0
290
     0
  0
SCALE
  5
2E2
102
{ACAD_REACTORS
330
2D8
102
}
330
2D8
100
AcDbScale
 70
     0
300
1:40
140
1.0
141
40.0
290
     0
  0
SCALE
  5
2E3
102
{ACAD_REACTORS
330
2D8
102
}
330
2D8
100
AcDbScale
 70
     0
300
1:50
140
1.0
141
50.0
290
     0
  0
SCALE
  5
2E4
102
{ACAD_REACTORS
330
2D8
102
}
330
2D8
100
AcDbScale
 70
     0
300
1:100
140
1.0
141
100.0
290
     0
  0
SCALE
  5
2E5
102
{ACAD_REACTORS
330
2D8
102
}
330
2D8
100
AcDbScale
 70
     0
300
2:1
140
2.0
141
1.0
290
     0
  0
SCALE
  5
2E6
102
{ACAD_REACTORS
330
2D8
102
}
330
2D8
100
AcDbScale
 70
     0
300
4:1
140
4.0
141
1.0
290
     0
  0
SCALE
  5
2E7
102
{ACAD_REACTORS
330
2D8
102
}
330
2D8
100
AcDbScale
 70
     0
300
8:1
140
8.0
141
1.0
290
     0
  0
SCALE
  5
2E8
102
{ACAD_REACTORS
330
2D8
102
}
330
2D8
100
AcDbScale
 70
     0
300
10:1
140
10.0
141
1.0
290
     0
  0
SCALE
  5
2E9
102
{ACAD_REACTORS
330
2D8
102
}
330
2D8
100
AcDbScale
 70
     0
300
100:1
140
100.0
141
1.0
290
     0
  0
SCALE
  5
2EA
102
{ACAD_REACTORS
330
2D8
102
}
330
2D8
100
AcDbScale
 70
     0
300
1/128" = 1'-0"
140
0.0078125
141
12.0
290
     0
  0
SCALE
  5
2EB
102
{ACAD_REACTORS
330
2D8
102
}
330
2D8
100
AcDbScale
 70
     0
300
1/64" = 1'-0"
140
0.015625
141
12.0
290
     0
  0
SCALE
  5
2EC
102
{ACAD_REACTORS
330
2D8
102
}
330
2D8
100
AcDbScale
 70
     0
300
1/32" = 1'-0"
140
0.03125
141
12.0
290
     0
  0
SCALE
  5
2ED
102
{ACAD_REACTORS
330
2D8
102
}
330
2D8
100
AcDbScale
 70
     0
300
1/16" = 1'-0"
140
0.0625
141
12.0
290
     0
  0
SCALE
  5
2EE
102
{ACAD_REACTORS
330
2D8
102
}
330
2D8
100
AcDbScale
 70
     0
300
3/32" = 1'-0"
140
0.09375
141
12.0
290
     0
  0
SCALE
  5
2EF
102
{ACAD_REACTORS
330
2D8
102
}
330
2D8
100
AcDbScale
 70
     0
300
1/8" = 1'-0"
140
0.125
141
12.0
290
     0
  0
SCALE
  5
2F0
102
{ACAD_REACTORS
330
2D8
102
}
330
2D8
100
AcDbScale
 70
     0
300
3/16" = 1'-0"
140
0.1875
141
12.0
290
     0
  0
SCALE
  5
2F1
102
{ACAD_REACTORS
330
2D8
102
}
330
2D8
100
AcDbScale
 70
     0
300
1/4" = 1'-0"
140
0.25
141
12.0
290
     0
  0
SCALE
  5
2F2
102
{ACAD_REACTORS
330
2D8
102
}
330
2D8
100
AcDbScale
 70
     0
300
3/8" = 1'-0"
140
0.375
141
12.0
290
     0
  0
SCALE
  5
2F3
102
{ACAD_REACTORS
330
2D8
102
}
330
2D8
100
AcDbScale
 70
     0
300
1/2" = 1'-0"
140
0.5
141
12.0
290
     0
  0
SCALE
  5
2F4
102
{ACAD_REACTORS
330
2D8
102
}
330
2D8
100
AcDbScale
 70
     0
300
3/4" = 1'-0"
140
0.75
141
12.0
290
     0
  0
SCALE
  5
2F5
102
{ACAD_REACTORS
330
2D8
102
}
330
2D8
100
AcDbScale
 70
     0
300
1" = 1'-0"
140
1.0
141
12.0
290
     0
  0
SCALE
  5
2F6
102
{ACAD_REACTORS
330
2D8
102
}
330
2D8
100
AcDbScale
 70
     0
300
1-1/2" = 1'-0"
140
1.5
141
12.0
290
     0
  0
SCALE
  5
2F7
102
{ACAD_REACTORS
330
2D8
102
}
330
2D8
100
AcDbScale
 70
     0
300
3" = 1'-0"
140
3.0
141
12.0
290
     0
  0
SCALE
  5
2F8
102
{ACAD_REACTORS
330
2D8
102
}
330
2D8
100
AcDbScale
 70
     0
300
6" = 1'-0"
140
6.0
141
12.0
290
     0
  0
SCALE
  5
2F9
102
{ACAD_REACTORS
330
2D8
102
}
330
2D8
100
AcDbScale
 70
     0
300
1'-0" = 1'-0"
140
12.0
141
12.0
290
     0
  0
TABLESTYLE
  5
2FB
102
{ACAD_REACTORS
330
2FA
102
}
102
{ACAD_XDICTIONARY
360
382
102
}
330
2FA
100
AcDbTableStyle
  3
Standard
 70
     0
 71
     0
 40
0.06
 41
0.06
280
     0
281
     0
  7
Standard
140
0.18
170
     2
 62
     0
 63
   257
283
     0
 90
        4
 91
        0
  1

274
    -2
284
     1
 64
     0
275
    -2
285
     1
 65
     0
276
    -2
286
     1
 66
     0
277
    -2
287
     1
 67
     0
278
    -2
288
     1
 68
     0
279
    -2
289
     1
 69
     0
  7
Standard
140
0.25
170
     5
 62
     0
 63
   257
283
     0
 90
        4
 91
        0
  1

274
    -2
284
     1
 64
     0
275
    -2
285
     1
 65
     0
276
    -2
286
     1
 66
     0
277
    -2
287
     1
 67
     0
278
    -2
288
     1
 68
     0
279
    -2
289
     1
 69
     0
  7
Standard
140
0.18
170
     5
 62
     0
 63
   257
283
     0
 90
        4
 91
        0
  1

274
    -2
284
     1
 64
     0
275
    -2
285
     1
 65
     0
276
    -2
286
     1
 66
     0
277
    -2
287
     1
 67
     0
278
    -2
288
     1
 68
     0
279
    -2
289
     1
 69
     0
  0
VISUALSTYLE
  5
2C0
102
{ACAD_REACTORS
330
2BB
102
}
330
2BB
100
AcDbVisualStyle
  2
2dWireframe
 70
     4
177
     3
291
     0
 70
    58
 90
        0
176
     1
 90
        2
176
     1
 90
        0
176
     1
 90
        0
176
     1
 40
0.6
176
     1
 40
30.0
176
     1
 62
     7
420
 16777215
176
     1
 90
        1
176
     1
 90
        4
176
     1
 62
     7
176
     1
 62
   257
176
     1
 90
        1
176
     1
 90
        1
176
     1
 40
1.0
176
     1
 90
        0
176
     1
 62
   257
176
     1
 40
1.0
176
     1
 90
        1
176
     1
 90
        6
176
     1
 90
        2
176
     1
 62
     7
176
     1
 90
        5
176
     1
 90
        0
176
     1
 90
        0
176
     1
290
     0
176
     1
 90
        1
176
     1
 40
0.0
176
     1
 90
        0
176
     1
290
     1
176
     1
290
     1
176
     1
290
     0
176
     1
290
     0
176
     1
290
     0
176
     1
290
     0
176
     1
290
     0
176
     1
290
     0
176
     1
290
     0
176
     1
 90
       50
176
     1
 40
0.0
176
     1
 40
1.0
176
     1
 90
        0
176
     1
 62
   178
420
        0
176
     1
 90
       50
176
     1
 90
        3
176
     1
 62
     5
420
      255
176
     1
290
     0
176
     1
 90
       50
176
     1
 90
       50
176
     1
 90
       50
176
     1
290
     0
176
     1
 90
       50
176
     1
 62
   256
176
     0
 40
1.0
176
     0
 90
        2
176
     1
  1
strokes_ogs.tif
176
     1
290
     0
176
     1
 40
1.0
176
     1
 40
1.0
176
     1
  0
VISUALSTYLE
  5
2C3
102
{ACAD_REACTORS
330
2BB
102
}
330
2BB
100
AcDbVisualStyle
  2
Basic
 70
     7
177
     3
291
     1
 70
    58
 90
        1
176
     1
 90
        0
176
     1
 90
        1
176
     1
 90
        0
176
     1
 40
0.6
176
     1
 40
30.0
176
     1
 62
     7
420
 16777215
176
     1
 90
        0
176
     1
 90
        4
176
     1
 62
     7
176
     1
 62
   257
176
     1
 90
        1
176
     1
 90
        1
176
     1
 40
1.0
176
     1
 90
        8
176
     1
 62
     7
176
     1
 40
1.0
176
     1
 90
        1
176
     1
 90
        6
176
     1
 90
        2
176
     1
 62
     7
176
     1
 90
        5
176
     1
 90
        0
176
     1
 90
        0
176
     1
290
     0
176
     1
 90
        1
176
     1
 40
0.0
176
     1
 90
        0
176
     1
290
     0
176
     1
290
     1
176
     1
290
     1
176
     1
290
     0
176
     1
290
     0
176
     1
290
     0
176
     1
290
     0
176
     1
290
     0
176
     1
290
     0
176
     1
 90
       50
176
     1
 40
0.0
176
     1
 40
1.0
176
     1
 90
        0
176
     1
 62
   178
420
        0
176
     1
 90
       50
176
     1
 90
        3
176
     1
 62
     5
420
      255
176
     1
290
     0
176
     1
 90
       50
176
     1
 90
       50
176
     1
 90
       50
176
     1
290
     0
176
     1
 90
       50
176
     1
 62
   256
176
     0
 40
1.0
176
     0
 90
        2
176
     1
  1
strokes_ogs.tif
176
     1
290
     0
176
     1
 40
1.0
176
     1
 40
1.0
176
     1
  0
VISUALSTYLE
  5
2C7
102
{ACAD_REACTORS
330
2BB
102
}
330
2BB
100
AcDbVisualStyle
  2
Brighten
 70
    12
177
     3
291
     1
 70
    58
 90
        2
176
     1
 90
        2
176
     1
 90
        0
176
     1
 90
        0
176
     1
 40
0.6
176
     1
 40
30.0
176
     1
 62
     7
420
 16777215
176
     1
 90
        1
176
     1
 90
        4
176
     1
 62
     7
176
     1
 62
   257
176
     1
 90
        1
176
     1
 90
        1
176
     1
 40
1.0
176
     1
 90
        8
176
     1
 62
     7
176
     1
 40
1.0
176
     1
 90
        1
176
     1
 90
        6
176
     1
 90
        2
176
     1
 62
     7
176
     1
 90
        5
176
     1
 90
        0
176
     1
 90
        0
176
     1
290
     0
176
     1
 90
        1
176
     1
 40
50.0
176
     1
 90
        0
176
     1
290
     0
176
     1
290
     1
176
     1
290
     1
176
     1
290
     0
176
     1
290
     0
176
     1
290
     0
176
     1
290
     0
176
     1
290
     0
176
     1
290
     0
176
     1
 90
       50
176
     1
 40
0.0
176
     1
 40
1.0
176
     1
 90
        0
176
     1
 62
   178
420
        0
176
     1
 90
       50
176
     1
 90
        3
176
     1
 62
     5
420
      255
176
     1
290
     0
176
     1
 90
       50
176
     1
 90
       50
176
     1
 90
       50
176
     1
290
     0
176
     1
 90
       50
176
     1
 62
   256
176
     0
 40
1.0
176
     0
 90
        2
176
     1
  1
strokes_ogs.tif
176
     1
290
     0
176
     1
 40
1.0
176
     1
 40
1.0
176
     1
  0
VISUALSTYLE
  5
2CB
102
{ACAD_REACTORS
330
2BB
102
}
330
2BB
100
AcDbVisualStyle
  2
ColorChange
 70
    16
177
     3
291
     1
 70
    58
 90
        2
176
     1
 90
        2
176
     1
 90
        3
176
     1
 90
        0
176
     1
 40
0.6
176
     1
 40
30.0
176
     1
 62
     8
420
  8421504
176
     1
 90
        1
176
     1
 90
        4
176
     1
 62
     7
176
     1
 62
   257
176
     1
 90
        1
176
     1
 90
        1
176
     1
 40
1.0
176
     1
 90
        8
176
     1
 62
     8
420
  8421504
176
     1
 40
1.0
176
     1
 90
        1
176
     1
 90
        6
176
     1
 90
        2
176
     1
 62
     7
176
     1
 90
        5
176
     1
 90
        0
176
     1
 90
        0
176
     1
290
     0
176
     1
 90
        1
176
     1
 40
0.0
176
     1
 90
        0
176
     1
290
     0
176
     1
290
     1
176
     1
290
     1
176
     1
290
     0
176
     1
290
     0
176
     1
290
     0
176
     1
290
     0
176
     1
290
     0
176
     1
290
     0
176
     1
 90
       50
176
     1
 40
0.0
176
     1
 40
1.0
176
     1
 90
        0
176
     1
 62
   178
420
        0
176
     1
 90
       50
176
     1
 90
        3
176
     1
 62
     5
420
      255
176
     1
290
     0
176
     1
 90
       50
176
     1
 90
       50
176
     1
 90
       50
176
     1
290
     0
176
     1
 90
       50
176
     1
 62
   256
176
     0
 40
1.0
176
     0
 90
        2
176
     1
  1
strokes_ogs.tif
176
     1
290
     0
176
     1
 40
1.0
176
     1
 40
1.0
176
     1
  0
VISUALSTYLE
  5
2C5
102
{ACAD_REACTORS
330
2BB
102
}
330
2BB
100
AcDbVisualStyle
  2
Conceptual
 70
     9
177
     3
291
     0
 70
    58
 90
        3
176
     1
 90
        2
176
     1
 90
        0
176
     1
 90
        0
176
     1
 40
0.6
176
     1
 40
30.0
176
     1
 62
     7
420
 16777215
176
     1
 90
        2
176
     1
 90
        2
176
     1
 62
     7
176
     1
 62
   257
176
     1
 90
        1
176
     1
 90
        1
176
     1
 40
179.0
176
     1
 90
        8
176
     1
 62
     7
176
     1
 40
1.0
176
     1
 90
        1
176
     1
 90
        6
176
     1
 90
        2
176
     1
 62
     7
176
     1
 90
        3
176
     1
 90
        0
176
     1
 90
        0
176
     1
290
     0
176
     1
 90
        1
176
     1
 40
0.0
176
     1
 90
        0
176
     1
290
     0
176
     1
290
     1
176
     1
290
     1
176
     1
290
     0
176
     1
290
     0
176
     1
290
     0
176
     1
290
     0
176
     1
290
     0
176
     1
290
     0
176
     1
 90
       50
176
     1
 40
0.0
176
     1
 40
1.0
176
     1
 90
        0
176
     1
 62
   178
420
        0
176
     1
 90
       50
176
     1
 90
        3
176
     1
 62
     5
420
      255
176
     1
290
     0
176
     1
 90
       50
176
     1
 90
       50
176
     1
 90
       50
176
     1
290
     0
176
     1
 90
       50
176
     1
 62
   256
176
     0
 40
1.0
176
     0
 90
        2
176
     1
  1
strokes_ogs.tif
176
     1
290
     0
176
     1
 40
1.0
176
     1
 40
1.0
176
     1
  0
VISUALSTYLE
  5
2C6
102
{ACAD_REACTORS
330
2BB
102
}
330
2BB
100
AcDbVisualStyle
  2
Dim
 70
    11
177
     3
291
     1
 70
    58
 90
        2
176
     1
 90
        2
176
     1
 90
        0
176
     1
 90
        0
176
     1
 40
0.6
176
     1
 40
30.0
176
     1
 62
     7
420
 16777215
176
     1
 90
        1
176
     1
 90
        4
176
     1
 62
     7
176
     1
 62
   257
176
     1
 90
        1
176
     1
 90
        1
176
     1
 40
1.0
176
     1
 90
        8
176
     1
 62
     7
176
     1
 40
1.0
176
     1
 90
        1
176
     1
 90
        6
176
     1
 90
        2
176
     1
 62
     7
176
     1
 90
        5
176
     1
 90
        0
176
     1
 90
        0
176
     1
290
     0
176
     1
 90
        1
176
     1
 40
-50.0
176
     1
 90
        0
176
     1
290
     0
176
     1
290
     1
176
     1
290
     1
176
     1
290
     0
176
     1
290
     0
176
     1
290
     0
176
     1
290
     0
176
     1
290
     0
176
     1
290
     0
176
     1
 90
       50
176
     1
 40
0.0
176
     1
 40
1.0
176
     1
 90
        0
176
     1
 62
   178
420
        0
176
     1
 90
       50
176
     1
 90
        3
176
     1
 62
     5
420
      255
176
     1
290
     0
176
     1
 90
       50
176
     1
 90
       50
176
     1
 90
       50
176
     1
290
     0
176
     1
 90
       50
176
     1
 62
   256
176
     0
 40
1.0
176
     0
 90
        2
176
     1
  1
strokes_ogs.tif
176
     1
290
     0
176
     1
 40
1.0
176
     1
 40
1.0
176
     1
  0
VISUALSTYLE
  5
2CE
102
{ACAD_REACTORS
330
2BB
102
}
330
2BB
100
AcDbVisualStyle
  2
EdgeColorOff
 70
    22
177
     3
291
     1
 70
    58
 90
        2
176
     0
 90
        2
176
     0
 90
        0
176
     0
 90
        0
176
     0
 40
0.6
176
     0
 40
30.0
176
     0
 62
     7
420
 16777215
176
     0
 90
        1
176
     0
 90
        4
176
     0
 62
     7
176
     0
 62
   257
176
     0
 90
        1
176
     0
 90
        1
176
     0
 40
1.0
176
     0
 90
        8
176
     2
 62
     7
176
     0
 40
1.0
176
     0
 90
        1
176
     0
 90
        6
176
     0
 90
        2
176
     0
 62
     7
176
     0
 90
        5
176
     0
 90
        0
176
     0
 90
        0
176
     0
290
     0
176
     0
 90
        1
176
     0
 40
0.0
176
     0
 90
        0
176
     0
290
     0
176
     0
290
     1
176
     0
290
     1
176
     0
290
     0
176
     0
290
     0
176
     0
290
     0
176
     0
290
     0
176
     0
290
     0
176
     0
290
     0
176
     0
 90
       50
176
     0
 40
0.0
176
     0
 40
1.0
176
     0
 90
        0
176
     0
 62
   178
420
        0
176
     0
 90
       50
176
     0
 90
        3
176
     0
 62
     5
420
      255
176
     0
290
     0
176
     0
 90
       50
176
     0
 90
       50
176
     0
 90
       50
176
     0
290
     0
176
     0
 90
       50
176
     0
 62
   256
176
     0
 40
1.0
176
     0
 90
        2
176
     0
  1
strokes_ogs.tif
176
     0
290
     0
176
     0
 40
1.0
176
     0
 40
1.0
176
     0
  0
VISUALSTYLE
  5
2CA
102
{ACAD_REACTORS
330
2BB
102
}
330
2BB
100
AcDbVisualStyle
  2
Facepattern
 70
    15
177
     3
291
     1
 70
    58
 90
        2
176
     1
 90
        2
176
     1
 90
        0
176
     1
 90
        0
176
     1
 40
0.6
176
     1
 40
30.0
176
     1
 62
     7
420
 16777215
176
     1
 90
        1
176
     1
 90
        4
176
     1
 62
     7
176
     1
 62
   257
176
     1
 90
        1
176
     1
 90
        1
176
     1
 40
1.0
176
     1
 90
        8
176
     1
 62
     7
176
     1
 40
1.0
176
     1
 90
        1
176
     1
 90
        6
176
     1
 90
        2
176
     1
 62
     7
176
     1
 90
        5
176
     1
 90
        0
176
     1
 90
        0
176
     1
290
     0
176
     1
 90
        1
176
     1
 40
0.0
176
     1
 90
        0
176
     1
290
     0
176
     1
290
     1
176
     1
290
     1
176
     1
290
     0
176
     1
290
     0
176
     1
290
     0
176
     1
290
     0
176
     1
290
     0
176
     1
290
     0
176
     1
 90
       50
176
     1
 40
0.0
176
     1
 40
1.0
176
     1
 90
        0
176
     1
 62
   178
420
        0
176
     1
 90
       50
176
     1
 90
        3
176
     1
 62
     5
420
      255
176
     1
290
     0
176
     1
 90
       50
176
     1
 90
       50
176
     1
 90
       50
176
     1
290
     0
176
     1
 90
       50
176
     1
 62
   256
176
     0
 40
1.0
176
     0
 90
        2
176
     1
  1
strokes_ogs.tif
176
     1
290
     0
176
     1
 40
1.0
176
     1
 40
1.0
176
     1
  0
VISUALSTYLE
  5
2BC
102
{ACAD_REACTORS
330
2BB
102
}
330
2BB
100
AcDbVisualStyle
  2
Flat
 70
     0
177
     3
291
     1
 70
    58
 90
        2
176
     1
 90
        1
176
     1
 90
        1
176
     1
 90
        2
176
     1
 40
0.6
176
     1
 40
30.0
176
     1
 62
     7
420
 16777215
176
     1
 90
        0
176
     1
 90
        0
176
     1
 62
     7
176
     1
 62
   257
176
     1
 90
        1
176
     1
 90
        1
176
     1
 40
1.0
176
     1
 90
        8
176
     1
 62
     7
176
     1
 40
1.0
176
     1
 90
        1
176
     1
 90
        6
176
     1
 90
        2
176
     1
 62
     7
176
     1
 90
        5
176
     1
 90
        0
176
     1
 90
        0
176
     1
290
     0
176
     1
 90
       13
176
     1
 40
0.0
176
     1
 90
        0
176
     1
290
     0
176
     1
290
     1
176
     1
290
     1
176
     1
290
     0
176
     1
290
     0
176
     1
290
     0
176
     1
290
     0
176
     1
290
     0
176
     1
290
     0
176
     1
 90
       50
176
     1
 40
0.0
176
     1
 40
1.0
176
     1
 90
        0
176
     1
 62
   178
420
        0
176
     1
 90
       50
176
     1
 90
        3
176
     1
 62
     5
420
      255
176
     1
290
     0
176
     1
 90
       50
176
     1
 90
       50
176
     1
 90
       50
176
     1
290
     0
176
     1
 90
       50
176
     1
 62
   256
176
     0
 40
1.0
176
     0
 90
        2
176
     1
  1
strokes_ogs.tif
176
     1
290
     0
176
     1
 40
1.0
176
     1
 40
1.0
176
     1
  0
VISUALSTYLE
  5
2BD
102
{ACAD_REACTORS
330
2BB
102
}
330
2BB
100
AcDbVisualStyle
  2
FlatWithEdges
 70
     1
177
     3
291
     1
 70
    58
 90
        2
176
     1
 90
        1
176
     1
 90
        1
176
     1
 90
        2
176
     1
 40
0.6
176
     1
 40
30.0
176
     1
 62
     7
420
 16777215
176
     1
 90
        1
176
     1
 90
        0
176
     1
 62
     7
176
     1
 62
   257
176
     1
 90
        1
176
     1
 90
        1
176
     1
 40
1.0
176
     1
 90
        0
176
     1
 62
   257
176
     1
 40
1.0
176
     1
 90
        1
176
     1
 90
        6
176
     1
 90
        2
176
     1
 62
     7
176
     1
 90
        5
176
     1
 90
        0
176
     1
 90
        0
176
     1
290
     0
176
     1
 90
       13
176
     1
 40
0.0
176
     1
 90
        0
176
     1
290
     0
176
     1
290
     1
176
     1
290
     1
176
     1
290
     0
176
     1
290
     0
176
     1
290
     0
176
     1
290
     0
176
     1
290
     0
176
     1
290
     0
176
     1
 90
       50
176
     1
 40
0.0
176
     1
 40
1.0
176
     1
 90
        0
176
     1
 62
   178
420
        0
176
     1
 90
       50
176
     1
 90
        3
176
     1
 62
     5
420
      255
176
     1
290
     0
176
     1
 90
       50
176
     1
 90
       50
176
     1
 90
       50
176
     1
290
     0
176
     1
 90
       50
176
     1
 62
   256
176
     0
 40
1.0
176
     0
 90
        2
176
     1
  1
strokes_ogs.tif
176
     1
290
     0
176
     1
 40
1.0
176
     1
 40
1.0
176
     1
  0
VISUALSTYLE
  5
2BE
102
{ACAD_REACTORS
330
2BB
102
}
330
2BB
100
AcDbVisualStyle
  2
Gouraud
 70
     2
177
     3
291
     1
 70
    58
 90
        2
176
     1
 90
        2
176
     1
 90
        1
176
     1
 90
        2
176
     1
 40
0.6
176
     1
 40
30.0
176
     1
 62
     7
420
 16777215
176
     1
 90
        0
176
     1
 90
        0
176
     1
 62
     7
176
     1
 62
   257
176
     1
 90
        1
176
     1
 90
        1
176
     1
 40
1.0
176
     1
 90
        0
176
     1
 62
     7
176
     1
 40
1.0
176
     1
 90
        1
176
     1
 90
        6
176
     1
 90
        2
176
     1
 62
     7
176
     1
 90
        5
176
     1
 90
        0
176
     1
 90
        0
176
     1
290
     0
176
     1
 90
       13
176
     1
 40
0.0
176
     1
 90
        0
176
     1
290
     0
176
     1
290
     1
176
     1
290
     1
176
     1
290
     0
176
     1
290
     0
176
     1
290
     0
176
     1
290
     0
176
     1
290
     0
176
     1
290
     0
176
     1
 90
       50
176
     1
 40
0.0
176
     1
 40
1.0
176
     1
 90
        0
176
     1
 62
   178
420
        0
176
     1
 90
       50
176
     1
 90
        3
176
     1
 62
     5
420
      255
176
     1
290
     0
176
     1
 90
       50
176
     1
 90
       50
176
     1
 90
       50
176
     1
290
     0
176
     1
 90
       50
176
     1
 62
   256
176
     0
 40
1.0
176
     0
 90
        2
176
     1
  1
strokes_ogs.tif
176
     1
290
     0
176
     1
 40
1.0
176
     1
 40
1.0
176
     1
  0
VISUALSTYLE
  5
2BF
102
{ACAD_REACTORS
330
2BB
102
}
330
2BB
100
AcDbVisualStyle
  2
GouraudWithEdges
 70
     3
177
     3
291
     1
 70
    58
 90
        2
176
     1
 90
        2
176
     1
 90
        1
176
     1
 90
        2
176
     1
 40
0.6
176
     1
 40
30.0
176
     1
 62
     7
420
 16777215
176
     1
 90
        1
176
     1
 90
        0
176
     1
 62
     7
176
     1
 62
   257
176
     1
 90
        1
176
     1
 90
        1
176
     1
 40
1.0
176
     1
 90
        0
176
     1
 62
   257
176
     1
 40
1.0
176
     1
 90
        1
176
     1
 90
        6
176
     1
 90
        2
176
     1
 62
     7
176
     1
 90
        5
176
     1
 90
        0
176
     1
 90
        0
176
     1
290
     0
176
     1
 90
       13
176
     1
 40
0.0
176
     1
 90
        0
176
     1
290
     0
176
     1
290
     1
176
     1
290
     1
176
     1
290
     0
176
     1
290
     0
176
     1
290
     0
176
     1
290
     0
176
     1
290
     0
176
     1
290
     0
176
     1
 90
       50
176
     1
 40
0.0
176
     1
 40
1.0
176
     1
 90
        0
176
     1
 62
   178
420
        0
176
     1
 90
       50
176
     1
 90
        3
176
     1
 62
     5
420
      255
176
     1
290
     0
176
     1
 90
       50
176
     1
 90
       50
176
     1
 90
       50
176
     1
290
     0
176
     1
 90
       50
176
     1
 62
   256
176
     0
 40
1.0
176
     0
 90
        2
176
     1
  1
strokes_ogs.tif
176
     1
290
     0
176
     1
 40
1.0
176
     1
 40
1.0
176
     1
  0
VISUALSTYLE
  5
2C2
102
{ACAD_REACTORS
330
2BB
102
}
330
2BB
100
AcDbVisualStyle
  2
Hidden
 70
     6
177
     3
291
     0
 70
    58
 90
        1
176
     1
 90
        2
176
     1
 90
        2
176
     1
 90
        0
176
     1
 40
0.6
176
     1
 40
30.0
176
     1
 62
     7
420
 16777215
176
     1
 90
        2
176
     1
 90
        2
176
     1
 62
     7
176
     1
 62
   257
176
     1
 90
        2
176
     1
 90
        1
176
     1
 40
40.0
176
     1
 90
        0
176
     1
 62
   257
176
     1
 40
1.0
176
     1
 90
        1
176
     1
 90
        6
176
     1
 90
        2
176
     1
 62
     7
176
     1
 90
        3
176
     1
 90
        0
176
     1
 90
        0
176
     1
290
     0
176
     1
 90
        1
176
     1
 40
0.0
176
     1
 90
        0
176
     1
290
     0
176
     1
290
     1
176
     1
290
     1
176
     1
290
     0
176
     1
290
     0
176
     1
290
     0
176
     1
290
     0
176
     1
290
     0
176
     1
290
     0
176
     1
 90
       50
176
     1
 40
0.0
176
     1
 40
1.0
176
     1
 90
        0
176
     1
 62
   178
420
        0
176
     1
 90
       50
176
     1
 90
        3
176
     1
 62
     5
420
      255
176
     1
290
     0
176
     1
 90
       50
176
     1
 90
       50
176
     1
 90
       50
176
     1
290
     0
176
     1
 90
       50
176
     1
 62
   256
176
     0
 40
1.0
176
     0
 90
        2
176
     1
  1
strokes_ogs.tif
176
     1
290
     0
176
     1
 40
1.0
176
     1
 40
1.0
176
     1
  0
VISUALSTYLE
  5
2CC
102
{ACAD_REACTORS
330
2BB
102
}
330
2BB
100
AcDbVisualStyle
  2
JitterOff
 70
    20
177
     3
291
     1
 70
    58
 90
        2
176
     0
 90
        2
176
     0
 90
        0
176
     0
 90
        0
176
     0
 40
0.6
176
     0
 40
30.0
176
     0
 62
     7
420
 16777215
176
     0
 90
        1
176
     0
 90
        4
176
     0
 62
     7
176
     0
 62
   257
176
     0
 90
        1
176
     0
 90
        1
176
     0
 40
1.0
176
     0
 90
       10
176
     2
 62
     7
176
     0
 40
1.0
176
     0
 90
        1
176
     0
 90
        6
176
     0
 90
        2
176
     0
 62
     7
176
     0
 90
        5
176
     0
 90
        0
176
     0
 90
        0
176
     0
290
     0
176
     0
 90
        1
176
     0
 40
0.0
176
     0
 90
        0
176
     0
290
     0
176
     0
290
     1
176
     0
290
     1
176
     0
290
     0
176
     0
290
     0
176
     0
290
     0
176
     0
290
     0
176
     0
290
     0
176
     0
290
     0
176
     0
 90
       50
176
     0
 40
0.0
176
     0
 40
1.0
176
     0
 90
        0
176
     0
 62
   178
420
        0
176
     0
 90
       50
176
     0
 90
        3
176
     0
 62
     5
420
      255
176
     0
290
     0
176
     0
 90
       50
176
     0
 90
       50
176
     0
 90
       50
176
     0
290
     0
176
     0
 90
       50
176
     0
 62
   256
176
     0
 40
1.0
176
     0
 90
        2
176
     0
  1
strokes_ogs.tif
176
     0
290
     0
176
     0
 40
1.0
176
     0
 40
1.0
176
     0
  0
VISUALSTYLE
  5
2C9
102
{ACAD_REACTORS
330
2BB
102
}
330
2BB
100
AcDbVisualStyle
  2
Linepattern
 70
    14
177
     3
291
     1
 70
    58
 90
        2
176
     1
 90
        2
176
     1
 90
        0
176
     1
 90
        0
176
     1
 40
0.6
176
     1
 40
30.0
176
     1
 62
     7
420
 16777215
176
     1
 90
        1
176
     1
 90
        4
176
     1
 62
     7
176
     1
 62
   257
176
     1
 90
        7
176
     1
 90
        7
176
     1
 40
1.0
176
     1
 90
        8
176
     1
 62
     7
176
     1
 40
1.0
176
     1
 90
        1
176
     1
 90
        6
176
     1
 90
        2
176
     1
 62
     7
176
     1
 90
        5
176
     1
 90
        0
176
     1
 90
        0
176
     1
290
     0
176
     1
 90
        1
176
     1
 40
0.0
176
     1
 90
        0
176
     1
290
     0
176
     1
290
     1
176
     1
290
     1
176
     1
290
     0
176
     1
290
     0
176
     1
290
     0
176
     1
290
     0
176
     1
290
     0
176
     1
290
     0
176
     1
 90
       50
176
     1
 40
0.0
176
     1
 40
1.0
176
     1
 90
        0
176
     1
 62
   178
420
        0
176
     1
 90
       50
176
     1
 90
        3
176
     1
 62
     5
420
      255
176
     1
290
     0
176
     1
 90
       50
176
     1
 90
       50
176
     1
 90
       50
176
     1
290
     0
176
     1
 90
       50
176
     1
 62
   256
176
     0
 40
1.0
176
     0
 90
        2
176
     1
  1
strokes_ogs.tif
176
     1
290
     0
176
     1
 40
1.0
176
     1
 40
1.0
176
     1
  0
VISUALSTYLE
  5
2CD
102
{ACAD_REACTORS
330
2BB
102
}
330
2BB
100
AcDbVisualStyle
  2
OverhangOff
 70
    21
177
     3
291
     1
 70
    58
 90
        2
176
     0
 90
        2
176
     0
 90
        0
176
     0
 90
        0
176
     0
 40
0.6
176
     0
 40
30.0
176
     0
 62
     7
420
 16777215
176
     0
 90
        1
176
     0
 90
        4
176
     0
 62
     7
176
     0
 62
   257
176
     0
 90
        1
176
     0
 90
        1
176
     0
 40
1.0
176
     0
 90
        9
176
     2
 62
     7
176
     0
 40
1.0
176
     0
 90
        1
176
     0
 90
        6
176
     0
 90
        2
176
     0
 62
     7
176
     0
 90
        5
176
     0
 90
        0
176
     0
 90
        0
176
     0
290
     0
176
     0
 90
        1
176
     0
 40
0.0
176
     0
 90
        0
176
     0
290
     0
176
     0
290
     1
176
     0
290
     1
176
     0
290
     0
176
     0
290
     0
176
     0
290
     0
176
     0
290
     0
176
     0
290
     0
176
     0
290
     0
176
     0
 90
       50
176
     0
 40
0.0
176
     0
 40
1.0
176
     0
 90
        0
176
     0
 62
   178
420
        0
176
     0
 90
       50
176
     0
 90
        3
176
     0
 62
     5
420
      255
176
     0
290
     0
176
     0
 90
       50
176
     0
 90
       50
176
     0
 90
       50
176
     0
290
     0
176
     0
 90
       50
176
     0
 62
   256
176
     0
 40
1.0
176
     0
 90
        2
176
     0
  1
strokes_ogs.tif
176
     0
290
     0
176
     0
 40
1.0
176
     0
 40
1.0
176
     0
  0
VISUALSTYLE
  5
2C4
102
{ACAD_REACTORS
330
2BB
102
}
330
2BB
100
AcDbVisualStyle
  2
Realistic
 70
     8
177
     3
291
     0
 70
    58
 90
        2
176
     1
 90
        3
176
     1
 90
        0
176
     1
 90
        2
176
     1
 40
0.6
176
     1
 40
30.0
176
     1
 62
     7
420
 16777215
176
     1
 90
        0
176
     1
 90
        0
176
     1
 62
     7
176
     1
 62
   257
176
     1
 90
        1
176
     1
 90
        1
176
     1
 40
1.0
176
     1
 90
        8
176
     1
 62
   257
176
     1
 40
1.0
176
     1
 90
        1
176
     1
 90
        6
176
     1
 90
        2
176
     1
 62
     7
176
     1
 90
        3
176
     1
 90
        0
176
     1
 90
        0
176
     1
290
     0
176
     1
 90
       13
176
     1
 40
0.0
176
     1
 90
        0
176
     1
290
     0
176
     1
290
     1
176
     1
290
     1
176
     1
290
     0
176
     1
290
     0
176
     1
290
     0
176
     1
290
     0
176
     1
290
     0
176
     1
290
     0
176
     1
 90
       50
176
     1
 40
0.0
176
     1
 40
1.0
176
     1
 90
        0
176
     1
 62
   178
420
        0
176
     1
 90
       50
176
     1
 90
        3
176
     1
 62
     5
420
      255
176
     1
290
     0
176
     1
 90
       50
176
     1
 90
       50
176
     1
 90
       50
176
     1
290
     0
176
     1
 90
       50
176
     1
 62
   256
176
     0
 40
1.0
176
     0
 90
        2
176
     1
  1
strokes_ogs.tif
176
     1
290
     0
176
     1
 40
1.0
176
     1
 40
1.0
176
     1
  0
VISUALSTYLE
  5
2D3
102
{ACAD_REACTORS
330
2BB
102
}
330
2BB
100
AcDbVisualStyle
  2
Shaded
 70
    27
177
     3
291
     0
 70
    58
 90
        2
176
     1
 90
        2
176
     1
 90
        1
176
     1
 90
        2
176
     1
 40
0.6
176
     1
 40
30.0
176
     1
 62
     7
420
 16777215
176
     1
 90
        0
176
     1
 90
        4
176
     1
 62
     7
176
     1
 62
   257
176
     1
 90
        1
176
     1
 90
        1
176
     1
 40
1.0
176
     1
 90
        8
176
     1
 62
   257
176
     1
 40
1.0
176
     1
 90
        1
176
     1
 90
        6
176
     1
 90
        2
176
     1
 62
     8
420
  7895160
176
     1
 90
        3
176
     1
 90
        0
176
     1
 90
        0
176
     1
290
     0
176
     1
 90
        5
176
     1
 40
0.0
176
     1
 90
        0
176
     1
290
     0
176
     1
290
     1
176
     1
290
     1
176
     1
290
     0
176
     1
290
     0
176
     1
290
     0
176
     1
290
     0
176
     1
290
     0
176
     1
290
     0
176
     1
 90
       50
176
     1
 40
0.0
176
     1
 40
1.0
176
     1
 90
        0
176
     1
 62
   178
420
        0
176
     1
 90
       50
176
     1
 90
        3
176
     1
 62
     5
420
      255
176
     1
290
     0
176
     1
 90
       50
176
     1
 90
       50
176
     1
 90
       50
176
     1
290
     0
176
     1
 90
       50
176
     1
 62
   256
176
     0
 40
1.0
176
     0
 90
        2
176
     1
  1
strokes_ogs.tif
176
     1
290
     0
176
     1
 40
1.0
176
     1
 40
1.0
176
     1
  0
VISUALSTYLE
  5
2D2
102
{ACAD_REACTORS
330
2BB
102
}
330
2BB
100
AcDbVisualStyle
  2
Shaded with edges
 70
    26
177
     3
291
     0
 70
    58
 90
        2
176
     1
 90
        2
176
     1
 90
        1
176
     1
 90
        2
176
     1
 40
0.6
176
     1
 40
30.0
176
     1
 62
     7
420
 16777215
176
     1
 90
        1
176
     1
 90
       10
176
     1
 62
     7
176
     1
 62
   257
176
     1
 90
        2
176
     1
 90
        1
176
     1
 40
1.0
176
     1
 90
        8
176
     1
 62
   257
176
     1
 40
1.0
176
     1
 90
        1
176
     1
 90
        6
176
     1
 90
        2
176
     1
 62
     7
176
     1
 90
        3
176
     1
 90
        0
176
     1
 90
        0
176
     1
290
     0
176
     1
 90
        5
176
     1
 40
0.0
176
     1
 90
        0
176
     1
290
     0
176
     1
290
     1
176
     1
290
     1
176
     1
290
     0
176
     1
290
     0
176
     1
290
     0
176
     1
290
     0
176
     1
290
     0
176
     1
290
     0
176
     1
 90
       50
176
     1
 40
0.0
176
     1
 40
1.0
176
     1
 90
        0
176
     1
 62
   178
420
        0
176
     1
 90
       50
176
     1
 90
        3
176
     1
 62
     5
420
      255
176
     1
290
     0
176
     1
 90
       50
176
     1
 90
       50
176
     1
 90
       50
176
     1
290
     0
176
     1
 90
       50
176
     1
 62
   256
176
     0
 40
1.0
176
     0
 90
        2
176
     1
  1
strokes_ogs.tif
176
     1
290
     0
176
     1
 40
1.0
176
     1
 40
1.0
176
     1
  0
VISUALSTYLE
  5
2CF
102
{ACAD_REACTORS
330
2BB
102
}
330
2BB
100
AcDbVisualStyle
  2
Shades of Gray
 70
    23
177
     3
291
     0
 70
    58
 90
        2
176
     1
 90
        2
176
     1
 90
        3
176
     1
 90
        0
176
     1
 40
0.6
176
     1
 40
30.0
176
     1
 62
     7
420
 16777215
176
     1
 90
        2
176
     1
 90
        2
176
     1
 62
     7
176
     1
 62
     7
176
     1
 90
        1
176
     1
 90
        1
176
     1
 40
40.0
176
     1
 90
        8
176
     1
 62
     7
176
     1
 40
1.0
176
     1
 90
        1
176
     1
 90
        6
176
     1
 90
        2
176
     1
 62
     7
176
     1
 90
        3
176
     1
 90
        0
176
     1
 90
        0
176
     1
290
     0
176
     1
 90
        1
176
     1
 40
0.0
176
     1
 90
        0
176
     1
290
     0
176
     1
290
     1
176
     1
290
     1
176
     1
290
     0
176
     1
290
     0
176
     1
290
     0
176
     1
290
     0
176
     1
290
     0
176
     1
290
     0
176
     1
 90
       50
176
     1
 40
0.0
176
     1
 40
1.0
176
     1
 90
        0
176
     1
 62
   178
420
        0
176
     1
 90
       50
176
     1
 90
        3
176
     1
 62
     5
420
      255
176
     1
290
     0
176
     1
 90
       50
176
     1
 90
       50
176
     1
 90
       50
176
     1
290
     0
176
     1
 90
       50
176
     1
 62
   256
176
     0
 40
1.0
176
     0
 90
        2
176
     1
  1
strokes_ogs.tif
176
     1
290
     0
176
     1
 40
1.0
176
     1
 40
1.0
176
     1
  0
VISUALSTYLE
  5
2D0
102
{ACAD_REACTORS
330
2BB
102
}
330
2BB
100
AcDbVisualStyle
  2
Sketchy
 70
    24
177
     3
291
     0
 70
    58
 90
        1
176
     1
 90
        2
176
     1
 90
        2
176
     1
 90
        0
176
     1
 40
0.6
176
     1
 40
30.0
176
     1
 62
     7
420
 16777215
176
     1
 90
        2
176
     1
 90
        2
176
     1
 62
     7
176
     1
 62
     7
176
     1
 90
        1
176
     1
 90
        1
176
     1
 40
40.0
176
     1
 90
       11
176
     1
 62
     7
176
     1
 40
1.0
176
     1
 90
        1
176
     1
 90
        6
176
     1
 90
        2
176
     1
 62
     7
176
     1
 90
        6
176
     1
 90
        0
176
     1
 90
        0
176
     1
290
     0
176
     1
 90
        1
176
     1
 40
0.0
176
     1
 90
        0
176
     1
290
     0
176
     1
290
     1
176
     1
290
     1
176
     1
290
     0
176
     1
290
     0
176
     1
290
     0
176
     1
290
     0
176
     1
290
     0
176
     1
290
     0
176
     1
 90
       50
176
     1
 40
0.0
176
     1
 40
1.0
176
     1
 90
        0
176
     1
 62
   178
420
        0
176
     1
 90
       50
176
     1
 90
        3
176
     1
 62
     5
420
      255
176
     1
290
     0
176
     1
 90
       50
176
     1
 90
       50
176
     1
 90
       50
176
     1
290
     0
176
     1
 90
       50
176
     1
 62
   256
176
     0
 40
1.0
176
     0
 90
        2
176
     1
  1
strokes_ogs.tif
176
     1
290
     0
176
     1
 40
1.0
176
     1
 40
1.0
176
     1
  0
VISUALSTYLE
  5
2C8
102
{ACAD_REACTORS
330
2BB
102
}
330
2BB
100
AcDbVisualStyle
  2
Thicken
 70
    13
177
     3
291
     1
 70
    58
 90
        2
176
     1
 90
        2
176
     1
 90
        0
176
     1
 90
        0
176
     1
 40
0.6
176
     1
 40
30.0
176
     1
 62
     7
420
 16777215
176
     1
 90
        1
176
     1
 90
        4
176
     1
 62
     7
176
     1
 62
   257
176
     1
 90
        1
176
     1
 90
        1
176
     1
 40
1.0
176
     1
 90
       12
176
     1
 62
     7
176
     1
 40
1.0
176
     1
 90
        1
176
     1
 90
        6
176
     1
 90
        2
176
     1
 62
     7
176
     1
 90
        5
176
     1
 90
        0
176
     1
 90
        0
176
     1
290
     0
176
     1
 90
        1
176
     1
 40
0.0
176
     1
 90
        0
176
     1
290
     0
176
     1
290
     1
176
     1
290
     1
176
     1
290
     0
176
     1
290
     0
176
     1
290
     0
176
     1
290
     0
176
     1
290
     0
176
     1
290
     0
176
     1
 90
       50
176
     1
 40
0.0
176
     1
 40
1.0
176
     1
 90
        0
176
     1
 62
   178
420
        0
176
     1
 90
       50
176
     1
 90
        3
176
     1
 62
     5
420
      255
176
     1
290
     0
176
     1
 90
       50
176
     1
 90
       50
176
     1
 90
       50
176
     1
290
     0
176
     1
 90
       50
176
     1
 62
   256
176
     0
 40
1.0
176
     0
 90
        2
176
     1
  1
strokes_ogs.tif
176
     1
290
     0
176
     1
 40
1.0
176
     1
 40
1.0
176
     1
  0
VISUALSTYLE
  5
2C1
102
{ACAD_REACTORS
330
2BB
102
}
330
2BB
100
AcDbVisualStyle
  2
Wireframe
 70
     5
177
     3
291
     0
 70
    58
 90
        0
176
     1
 90
        2
176
     1
 90
        0
176
     1
 90
        0
176
     1
 40
0.6
176
     1
 40
30.0
176
     1
 62
     7
420
 16777215
176
     1
 90
        1
176
     1
 90
        4
176
     1
 62
     7
176
     1
 62
   257
176
     1
 90
        1
176
     1
 90
        1
176
     1
 40
1.0
176
     1
 90
        0
176
     1
 62
   257
176
     1
 40
1.0
176
     1
 90
        1
176
     1
 90
        6
176
     1
 90
        2
176
     1
 62
     7
176
     1
 90
        3
176
     1
 90
        0
176
     1
 90
        0
176
     1
290
     0
176
     1
 90
        1
176
     1
 40
0.0
176
     1
 90
        0
176
     1
290
     0
176
     1
290
     1
176
     1
290
     1
176
     1
290
     0
176
     1
290
     0
176
     1
290
     0
176
     1
290
     0
176
     1
290
     0
176
     1
290
     0
176
     1
 90
       50
176
     1
 40
0.0
176
     1
 40
1.0
176
     1
 90
        0
176
     1
 62
   178
420
        0
176
     1
 90
       50
176
     1
 90
        3
176
     1
 62
     5
420
      255
176
     1
290
     0
176
     1
 90
       50
176
     1
 90
       50
176
     1
 90
       50
176
     1
290
     0
176
     1
 90
       50
176
     1
 62
   256
176
     0
 40
1.0
176
     0
 90
        2
176
     1
  1
strokes_ogs.tif
176
     1
290
     0
176
     1
 40
1.0
176
     1
 40
1.0
176
     1
  0
VISUALSTYLE
  5
2D1
102
{ACAD_REACTORS
330
2BB
102
}
330
2BB
100
AcDbVisualStyle
  2
X-Ray
 70
    25
177
     3
291
     0
 70
    58
 90
        2
176
     1
 90
        2
176
     1
 90
        1
176
     1
 90
        1
176
     1
 40
0.5
176
     1
 40
30.0
176
     1
 62
     7
420
 16777215
176
     1
 90
        1
176
     1
 90
        0
176
     1
 62
     7
176
     1
 62
   257
176
     1
 90
        1
176
     1
 90
        1
176
     1
 40
1.0
176
     1
 90
        8
176
     1
 62
     7
176
     1
 40
1.0
176
     1
 90
        1
176
     1
 90
        6
176
     1
 90
        2
176
     1
 62
     7
176
     1
 90
        3
176
     1
 90
        0
176
     1
 90
        0
176
     1
290
     0
176
     1
 90
       13
176
     1
 40
0.0
176
     1
 90
        0
176
     1
290
     0
176
     1
290
     1
176
     1
290
     1
176
     1
290
     0
176
     1
290
     0
176
     1
290
     0
176
     1
290
     0
176
     1
290
     0
176
     1
290
     0
176
     1
 90
       50
176
     1
 40
0.0
176
     1
 40
1.0
176
     1
 90
        0
176
     1
 62
   178
420
        0
176
     1
 90
       50
176
     1
 90
        3
176
     1
 62
     5
420
      255
176
     1
290
     0
176
     1
 90
       50
176
     1
 90
       50
176
     1
 90
       50
176
     1
290
     0
176
     1
 90
       50
176
     1
 62
   256
176
     0
 40
1.0
176
     0
 90
        2
176
     1
  1
strokes_ogs.tif
176
     1
290
     0
176
     1
 40
1.0
176
     1
 40
1.0
176
     1
  0
DICTIONARYVAR
  5
381
102
{ACAD_REACTORS
330
380
102
}
330
380
100
DictionaryVariables
280
     0
  1
1:1
  0
DICTIONARYVAR
  5
386
102
{ACAD_REACTORS
330
380
102
}
330
380
100
DictionaryVariables
280
     0
  1
Standard
  0
DICTIONARYVAR
  5
385
102
{ACAD_REACTORS
330
380
102
}
330
380
100
DictionaryVariables
280
     0
  1
Standard
  0
XRECORD
  5
302
102
{ACAD_REACTORS
330
300
102
}
330
300
100
AcDbXrecord
280
     1
1000
#ffffff
  0
XRECORD
  5
303
102
{ACAD_REACTORS
330
300
102
}
330
300
100
AcDbXrecord
280
     1
1000
FullColor
  0
XRECORD
  5
304
102
{ACAD_REACTORS
330
300
102
}
330
300
100
AcDbXrecord
280
     1
 90
        0
  0
XRECORD
  5
305
102
{ACAD_REACTORS
330
300
102
}
330
300
100
AcDbXrecord
280
     1
 90
        0
  0
XRECORD
  5
306
102
{ACAD_REACTORS
330
300
102
}
330
300
100
AcDbXrecord
280
     1
 90
       46
  0
XRECORD
  5
307
102
{ACAD_REACTORS
330
300
102
}
330
300
100
AcDbXrecord
280
     1
1000
DejaVu Sans
  0
XRECORD
  5
308
102
{ACAD_REACTORS
330
300
102
}
330
300
100
AcDbXrecord
280
     1
290
     1
  0
XRECORD
  5
309
102
{ACAD_REACTORS
330
300
102
}
330
300
100
AcDbXrecord
280
     1
 90
        2
  0
XRECORD
  5
30A
102
{ACAD_REACTORS
330
300
102
}
330
300
100
AcDbXrecord
280
     1
 90
        4
  0
XRECORD
  5
30B
102
{ACAD_REACTORS
330
300
102
}
330
300
100
AcDbXrecord
280
     1
290
     1
  0
XRECORD
  5
30C
102
{ACAD_REACTORS
330
300
102
}
330
300
100
AcDbXrecord
280
     1
290
     1
  0
XRECORD
  5
30D
102
{ACAD_REACTORS
330
300
102
}
330
300
100
AcDbXrecord
280
     1
290
     1
  0
XRECORD
  5
30E
102
{ACAD_REACTORS
330
300
102
}
330
300
100
AcDbXrecord
280
     1
290
     1
  0
XRECORD
  5
30F
102
{ACAD_REACTORS
330
300
102
}
330
300
100
AcDbXrecord
280
     1
1000
auto
  0
XRECORD
  5
310
102
{ACAD_REACTORS
330
300
102
}
330
300
100
AcDbXrecord
280
     1
1000
auto
  0
XRECORD
  5
311
102
{ACAD_REACTORS
330
300
102
}
330
300
100
AcDbXrecord
280
     1
1000
auto
  0
XRECORD
  5
312
102
{ACAD_REACTORS
330
300
102
}
330
300
100
AcDbXrecord
280
     1
1000
auto
  0
XRECORD
  5
313
102
{ACAD_REACTORS
330
300
102
}
330
300
100
AcDbXrecord
280
     1
1000
auto
  0
XRECORD
  5
314
102
{ACAD_REACTORS
330
300
102
}
330
300
100
AcDbXrecord
280
     1
1000
auto
  0
XRECORD
  5
315
102
{ACAD_REACTORS
330
300
102
}
330
300
100
AcDbXrecord
280
     1
1000
auto
  0
XRECORD
  5
316
102
{ACAD_REACTORS
330
300
102
}
330
300
100
AcDbXrecord
280
     1
1000
auto
  0
XRECORD
  5
317
102
{ACAD_REACTORS
330
300
102
}
330
300
100
AcDbXrecord
280
     1
290
     0
  0
XRECORD
  5
318
102
{ACAD_REACTORS
330
300
102
}
330
300
100
AcDbXrecord
280
     1
290
     0
  0
XRECORD
  5
319
102
{ACAD_REACTORS
330
300
102
}
330
300
100
AcDbXrecord
280
     1
290
     0
  0
XRECORD
  5
31A
102
{ACAD_REACTORS
330
300
102
}
330
300
100
AcDbXrecord
280
     1
290
     0
  0
XRECORD
  5
31B
102
{ACAD_REACTORS
330
300
102
}
330
300
100
AcDbXrecord
280
     1
 90
    65537
  0
XRECORD
  5
31C
102
{ACAD_REACTORS
330
300
102
}
330
300
100
AcDbXrecord
280
     1
 90
    65537
  0
XRECORD
  5
31D
102
{ACAD_REACTORS
330
300
102
}
330
300
100
AcDbXrecord
280
     1
 90
    65537
  0
XRECORD
  5
31E
102
{ACAD_REACTORS
330
300
102
}
330
300
100
AcDbXrecord
280
     1
 90
    65537
  0
XRECORD
  5
31F
102
{ACAD_REACTORS
330
300
102
}
330
300
100
AcDbXrecord
280
     1
1000
auto
  0
XRECORD
  5
320
102
{ACAD_REACTORS
330
300
102
}
330
300
100
AcDbXrecord
280
     1
1000
auto
  0
XRECORD
  5
321
102
{ACAD_REACTORS
330
300
102
}
330
300
100
AcDbXrecord
280
     1
1000
auto
  0
XRECORD
  5
322
102
{ACAD_REACTORS
330
300
102
}
330
300
100
AcDbXrecord
280
     1
1000
auto
  0
XRECORD
  5
323
102
{ACAD_REACTORS
330
300
102
}
330
300
100
AcDbXrecord
280
     1
1000
auto
  0
XRECORD
  5
324
102
{ACAD_REACTORS
330
300
102
}
330
300
100
AcDbXrecord
280
     1
1000
auto
  0
XRECORD
  5
325
102
{ACAD_REACTORS
330
300
102
}
330
300
100
AcDbXrecord
280
     1
1000
auto
  0
XRECORD
  5
326
102
{ACAD_REACTORS
330
300
102
}
330
300
100
AcDbXrecord
280
     1
1000
auto
  0
XRECORD
  5
327
102
{ACAD_REACTORS
330
300
102
}
330
300
100
AcDbXrecord
280
     1
 90
        3
  0
XRECORD
  5
328
102
{ACAD_REACTORS
330
300
102
}
330
300
100
AcDbXrecord
280
     1
 40
0.0
  0
XRECORD
  5
329
102
{ACAD_REACTORS
330
300
102
}
330
300
100
AcDbXrecord
280
     1
 40
0.0
  0
XRECORD
  5
32A
102
{ACAD_REACTORS
330
300
102
}
330
300
100
AcDbXrecord
280
     1
 40
0.0
  0
XRECORD
  5
32B
102
{ACAD_REACTORS
330
300
102
}
330
300
100
AcDbXrecord
280
     1
 40
0.0
  0
XRECORD
  5
32C
102
{ACAD_REACTORS
330
300
102
}
330
300
100
AcDbXrecord
280
     1
290
     0
  0
XRECORD
  5
32D
102
{ACAD_REACTORS
330
300
102
}
330
300
100
AcDbXrecord
280
     1
 90
        1
  0
XRECORD
  5
32E
102
{ACAD_REACTORS
330
300
102
}
330
300
100
AcDbXrecord
280
     1
 40
0.0
  0
XRECORD
  5
32F
102
{ACAD_REACTORS
330
300
102
}
330
300
100
AcDbXrecord
280
     1
 40
0.0
  0
XRECORD
  5
330
102
{ACAD_REACTORS
330
300
102
}
330
300
100
AcDbXrecord
280
     1
1000
Landscape
  0
XRECORD
  5
331
102
{ACAD_REACTORS
330
300
102
}
330
300
100
AcDbXrecord
280
     1
 40
297.0
  0
XRECORD
  5
332
102
{ACAD_REACTORS
330
300
102
}
330
300
100
AcDbXrecord
280
     1
 40
210.0
  0
XRECORD
  5
333
102
{ACAD_REACTORS
330
300
102
}
330
300
100
AcDbXrecord
280
     1
1000
1:1
  0
XRECORD
  5
334
102
{ACAD_REACTORS
330
300
102
}
330
300
100
AcDbXrecord
280
     1
290
     1
  0
XRECORD
  5
335
102
{ACAD_REACTORS
330
300
102
}
330
300
100
AcDbXrecord
280
     1
1000
3.22.1
  0
XRECORD
  5
336
102
{ACAD_REACTORS
330
300
102
}
330
300
100
AcDbXrecord
280
     1
 90
        4
  0
XRECORD
  5
337
102
{ACAD_REACTORS
330
300
102
}
330
300
100
AcDbXrecord
280
     1
  0
XRECORD
  5
338
102
{ACAD_REACTORS
330
300
102
}
330
300
100
AcDbXrecord
280
     1
 40
266.6348913449983
  0
XRECORD
  5
339
102
{ACAD_REACTORS
330
300
102
}
330
300
100
AcDbXrecord
280
     1
 40
512.9877223093939
  0
DICTIONARY
  5
382
330
2FB
100
AcDbDictionary
280
     1
281
     1
  3
ACAD_ROUNDTRIP_2008_TABLESTYLE_CELLSTYLEMAP
360
383
  0
CELLSTYLEMAP
  5
383
102
{ACAD_REACTORS
330
382
102
}
330
382
100
AcDbCellStyleMap
 90
        3
300
CELLSTYLE
  1
TABLEFORMAT_BEGIN
 90
        5
170
     1
 91
        0
 92
    32768
 62
   257
 93
        1
300
CONTENTFORMAT
  1
CONTENTFORMAT_BEGIN
 90
        0
 91
        0
 92
        4
 93
        0
300

 40
0.0
140
1.0
 94
        5
 62
     0
340
2A3
144
0.25
309
CONTENTFORMAT_END
171
     1
301
MARGIN
  1
CELLMARGIN_BEGIN
 40
0.06
 40
0.06
 40
0.06
 40
0.06
 40
0.06
 40
0.06
309
CELLMARGIN_END
 94
        6
 95
        1
302
GRIDFORMAT
  1
GRIDFORMAT_BEGIN
 90
        0
 91
        1
 62
     0
 92
       -2
340
2A5
 93
        0
 40
0.045
309
GRIDFORMAT_END
 95
        2
302
GRIDFORMAT
  1
GRIDFORMAT_BEGIN
 90
        0
 91
        1
 62
     0
 92
       -2
340
2A5
 93
        0
 40
0.045
309
GRIDFORMAT_END
 95
        4
302
GRIDFORMAT
  1
GRIDFORMAT_BEGIN
 90
        0
 91
        1
 62
     0
 92
       -2
340
2A5
 93
        0
 40
0.045
309
GRIDFORMAT_END
 95
        8
302
GRIDFORMAT
  1
GRIDFORMAT_BEGIN
 90
        0
 91
        1
 62
     0
 92
       -2
340
2A5
 93
        0
 40
0.045
309
GRIDFORMAT_END
 95
       16
302
GRIDFORMAT
  1
GRIDFORMAT_BEGIN
 90
        0
 91
        1
 62
     0
 92
       -2
340
2A5
 93
        0
 40
0.045
309
GRIDFORMAT_END
 95
       32
302
GRIDFORMAT
  1
GRIDFORMAT_BEGIN
 90
        0
 91
        1
 62
     0
 92
       -2
340
2A5
 93
        0
 40
0.045
309
GRIDFORMAT_END
309
TABLEFORMAT_END
  1
CELLSTYLE_BEGIN
 90
        1
 91
        1
300
_TITLE
309
CELLSTYLE_END
300
CELLSTYLE
  1
TABLEFORMAT_BEGIN
 90
        5
170
     1
 91
        0
 92
        0
 62
   257
 93
        1
300
CONTENTFORMAT
  1
CONTENTFORMAT_BEGIN
 90
        0
 91
        0
 92
        4
 93
        0
300

 40
0.0
140
1.0
 94
        5
 62
     0
340
2A3
144
0.18
309
CONTENTFORMAT_END
171
     1
301
MARGIN
  1
CELLMARGIN_BEGIN
 40
0.06
 40
0.06
 40
0.06
 40
0.06
 40
0.06
 40
0.06
309
CELLMARGIN_END
 94
        6
 95
        1
302
GRIDFORMAT
  1
GRIDFORMAT_BEGIN
 90
        0
 91
        1
 62
     0
 92
       -2
340
2A5
 93
        0
 40
0.045
309
GRIDFORMAT_END
 95
        2
302
GRIDFORMAT
  1
GRIDFORMAT_BEGIN
 90
        0
 91
        1
 62
     0
 92
       -2
340
2A5
 93
        0
 40
0.045
309
GRIDFORMAT_END
 95
        4
302
GRIDFORMAT
  1
GRIDFORMAT_BEGIN
 90
        0
 91
        1
 62
     0
 92
       -2
340
2A5
 93
        0
 40
0.045
309
GRIDFORMAT_END
 95
        8
302
GRIDFORMAT
  1
GRIDFORMAT_BEGIN
 90
        0
 91
        1
 62
     0
 92
       -2
340
2A5
 93
        0
 40
0.045
309
GRIDFORMAT_END
 95
       16
302
GRIDFORMAT
  1
GRIDFORMAT_BEGIN
 90
        0
 91
        1
 62
     0
 92
       -2
340
2A5
 93
        0
 40
0.045
309
GRIDFORMAT_END
 95
       32
302
GRIDFORMAT
  1
GRIDFORMAT_BEGIN
 90
        0
 91
        1
 62
     0
 92
       -2
340
2A5
 93
        0
 40
0.045
309
GRIDFORMAT_END
309
TABLEFORMAT_END
  1
CELLSTYLE_BEGIN
 90
        2
 91
        1
300
_HEADER
309
CELLSTYLE_END
300
CELLSTYLE
  1
TABLEFORMAT_BEGIN
 90
        5
170
     1
 91
        0
 92
        0
 62
   257
 93
        1
300
CONTENTFORMAT
  1
CONTENTFORMAT_BEGIN
 90
        0
 91
        0
 92
        4
 93
        0
300

 40
0.0
140
1.0
 94
        2
 62
     0
340
2A3
144
0.18
309
CONTENTFORMAT_END
171
     1
301
MARGIN
  1
CELLMARGIN_BEGIN
 40
0.06
 40
0.06
 40
0.06
 40
0.06
 40
0.06
 40
0.06
309
CELLMARGIN_END
 94
        6
 95
        1
302
GRIDFORMAT
  1
GRIDFORMAT_BEGIN
 90
        0
 91
        1
 62
     0
 92
       -2
340
2A5
 93
        0
 40
0.045
309
GRIDFORMAT_END
 95
        2
302
GRIDFORMAT
  1
GRIDFORMAT_BEGIN
 90
        0
 91
        1
 62
     0
 92
       -2
340
2A5
 93
        0
 40
0.045
309
GRIDFORMAT_END
 95
        4
302
GRIDFORMAT
  1
GRIDFORMAT_BEGIN
 90
        0
 91
        1
 62
     0
 92
       -2
340
2A5
 93
        0
 40
0.045
309
GRIDFORMAT_END
 95
        8
302
GRIDFORMAT
  1
GRIDFORMAT_BEGIN
 90
        0
 91
        1
 62
     0
 92
       -2
340
2A5
 93
        0
 40
0.045
309
GRIDFORMAT_END
 95
       16
302
GRIDFORMAT
  1
GRIDFORMAT_BEGIN
 90
        0
 91
        1
 62
     0
 92
       -2
340
2A5
 93
        0
 40
0.045
309
GRIDFORMAT_END
 95
       32
302
GRIDFORMAT
  1
GRIDFORMAT_BEGIN
 90
        0
 91
        1
 62
     0
 92
       -2
340
2A5
 93
        0
 40
0.045
309
GRIDFORMAT_END
309
TABLEFORMAT_END
  1
CELLSTYLE_BEGIN
 90
        3
 91
        2
300
_DATA
309
CELLSTYLE_END
  0
ENDSEC
  0
EOF
